ISO-10303-21;
HEADER;
/* Generated by software containing ST-Developer
 * from STEP Tools, Inc. (www.steptools.com) 
 */
/* OPTION: using custom schema-name function */

FILE_DESCRIPTION(
/* description */ (''),
/* implementation_level */ '2;1');

FILE_NAME(
/* name */ '683ZZ.stp',
/* time_stamp */ '2022-07-20T21:19:12+09:00',
/* author */ (''),
/* organization */ (''),
/* preprocessor_version */ 'ST-DEVELOPER v16.7',
/* originating_system */ '',
/* authorisation */ '');

FILE_SCHEMA (('AUTOMOTIVE_DESIGN { 1 0 10303 214 3 1 1 1 }'));
ENDSEC;

DATA;
#10=CONSTRUCTIVE_GEOMETRY_REPRESENTATION_RELATIONSHIP(
'supplemental geometry','',#34,#11);
#11=CONSTRUCTIVE_GEOMETRY_REPRESENTATION('supplemental geometry',(#233),
#386);
#12=GEOMETRICALLY_BOUNDED_WIREFRAME_SHAPE_REPRESENTATION('683ZZ-None',(#35),
#386);
#13=PROPERTY_DEFINITION_REPRESENTATION(#17,#15);
#14=PROPERTY_DEFINITION_REPRESENTATION(#18,#16);
#15=REPRESENTATION('',(#19),#386);
#16=REPRESENTATION('',(#20),#386);
#17=PROPERTY_DEFINITION('pmi validation property','',#25);
#18=PROPERTY_DEFINITION('pmi validation property','',#25);
#19=VALUE_REPRESENTATION_ITEM('number of annotations',COUNT_MEASURE(0.));
#20=VALUE_REPRESENTATION_ITEM('number of views',COUNT_MEASURE(0.));
#21=SHAPE_REPRESENTATION_RELATIONSHIP('None',
'relationship between 683ZZ-None and 683ZZ-None',#34,#23);
#22=SHAPE_REPRESENTATION_RELATIONSHIP('None',
'relationship between 683ZZ-None and 683ZZ-None',#34,#12);
#23=ADVANCED_BREP_SHAPE_REPRESENTATION('683ZZ-None',(#41),#386);
#24=SHAPE_DEFINITION_REPRESENTATION(#25,#34);
#25=PRODUCT_DEFINITION_SHAPE('','',#26);
#26=PRODUCT_DEFINITION(' ','',#28,#27);
#27=PRODUCT_DEFINITION_CONTEXT('part definition',#33,'design');
#28=PRODUCT_DEFINITION_FORMATION_WITH_SPECIFIED_SOURCE(' ',' ',#30,
 .NOT_KNOWN.);
#29=PRODUCT_RELATED_PRODUCT_CATEGORY('part','',(#30));
#30=PRODUCT('683ZZ','683ZZ',' ',(#31));
#31=PRODUCT_CONTEXT(' ',#33,'mechanical');
#32=APPLICATION_PROTOCOL_DEFINITION('international standard',
'automotive_design',2010,#33);
#33=APPLICATION_CONTEXT(
'core data for automotive mechanical design processes');
#34=SHAPE_REPRESENTATION('683ZZ-None',(#232),#386);
#35=GEOMETRIC_CURVE_SET('None',(#335));
#36=SURFACE_STYLE_USAGE(.BOTH.,#37);
#37=SURFACE_SIDE_STYLE('',(#38));
#38=SURFACE_STYLE_FILL_AREA(#39);
#39=FILL_AREA_STYLE('',(#40));
#40=FILL_AREA_STYLE_COLOUR('',#231);
#41=MANIFOLD_SOLID_BREP('_B683ZZ',#42);
#42=CLOSED_SHELL('',(#53,#54,#55,#56,#57,#58,#59,#60,#61,#62,#63,#64,#65,
#66,#67,#68));
#43=CYLINDRICAL_SURFACE('',#240,1.5);
#44=CYLINDRICAL_SURFACE('',#246,2.14);
#45=CYLINDRICAL_SURFACE('',#250,3.003);
#46=CYLINDRICAL_SURFACE('',#256,3.5);
#47=CYLINDRICAL_SURFACE('',#262,3.003);
#48=CYLINDRICAL_SURFACE('',#265,2.14);
#49=TOROIDAL_SURFACE('',#238,1.6,0.1);
#50=TOROIDAL_SURFACE('',#242,1.6,0.1);
#51=TOROIDAL_SURFACE('',#254,3.4,0.1);
#52=TOROIDAL_SURFACE('',#258,3.4,0.1);
#53=ADVANCED_FACE('',(#75,#76),#69,.T.);
#54=ADVANCED_FACE('',(#77,#78),#49,.T.);
#55=ADVANCED_FACE('',(#79,#80),#43,.F.);
#56=ADVANCED_FACE('',(#81,#82),#50,.T.);
#57=ADVANCED_FACE('',(#83,#84),#70,.T.);
#58=ADVANCED_FACE('',(#85,#86),#44,.T.);
#59=ADVANCED_FACE('',(#87,#88),#71,.T.);
#60=ADVANCED_FACE('',(#89,#90),#45,.F.);
#61=ADVANCED_FACE('',(#91,#92),#72,.T.);
#62=ADVANCED_FACE('',(#93,#94),#51,.T.);
#63=ADVANCED_FACE('',(#95,#96),#46,.T.);
#64=ADVANCED_FACE('',(#97,#98),#52,.T.);
#65=ADVANCED_FACE('',(#99,#100),#73,.T.);
#66=ADVANCED_FACE('',(#101,#102),#47,.F.);
#67=ADVANCED_FACE('',(#103,#104),#74,.T.);
#68=ADVANCED_FACE('',(#105,#106),#48,.T.);
#69=PLANE('',#236);
#70=PLANE('',#244);
#71=PLANE('',#248);
#72=PLANE('',#252);
#73=PLANE('',#260);
#74=PLANE('',#264);
#75=FACE_BOUND('',#107,.T.);
#76=FACE_BOUND('',#108,.T.);
#77=FACE_BOUND('',#109,.T.);
#78=FACE_BOUND('',#110,.T.);
#79=FACE_BOUND('',#111,.T.);
#80=FACE_BOUND('',#112,.T.);
#81=FACE_BOUND('',#113,.T.);
#82=FACE_BOUND('',#114,.T.);
#83=FACE_BOUND('',#115,.T.);
#84=FACE_BOUND('',#116,.T.);
#85=FACE_BOUND('',#117,.T.);
#86=FACE_BOUND('',#118,.T.);
#87=FACE_BOUND('',#119,.T.);
#88=FACE_BOUND('',#120,.T.);
#89=FACE_BOUND('',#121,.T.);
#90=FACE_BOUND('',#122,.T.);
#91=FACE_BOUND('',#123,.T.);
#92=FACE_BOUND('',#124,.T.);
#93=FACE_BOUND('',#125,.T.);
#94=FACE_BOUND('',#126,.T.);
#95=FACE_BOUND('',#127,.T.);
#96=FACE_BOUND('',#128,.T.);
#97=FACE_BOUND('',#129,.T.);
#98=FACE_BOUND('',#130,.T.);
#99=FACE_BOUND('',#131,.T.);
#100=FACE_BOUND('',#132,.T.);
#101=FACE_BOUND('',#133,.T.);
#102=FACE_BOUND('',#134,.T.);
#103=FACE_BOUND('',#135,.T.);
#104=FACE_BOUND('',#136,.T.);
#105=FACE_BOUND('',#137,.T.);
#106=FACE_BOUND('',#138,.T.);
#107=EDGE_LOOP('',(#139));
#108=EDGE_LOOP('',(#140));
#109=EDGE_LOOP('',(#141));
#110=EDGE_LOOP('',(#142));
#111=EDGE_LOOP('',(#143));
#112=EDGE_LOOP('',(#144));
#113=EDGE_LOOP('',(#145));
#114=EDGE_LOOP('',(#146));
#115=EDGE_LOOP('',(#147));
#116=EDGE_LOOP('',(#148));
#117=EDGE_LOOP('',(#149));
#118=EDGE_LOOP('',(#150));
#119=EDGE_LOOP('',(#151));
#120=EDGE_LOOP('',(#152));
#121=EDGE_LOOP('',(#153));
#122=EDGE_LOOP('',(#154));
#123=EDGE_LOOP('',(#155));
#124=EDGE_LOOP('',(#156));
#125=EDGE_LOOP('',(#157));
#126=EDGE_LOOP('',(#158));
#127=EDGE_LOOP('',(#159));
#128=EDGE_LOOP('',(#160));
#129=EDGE_LOOP('',(#161));
#130=EDGE_LOOP('',(#162));
#131=EDGE_LOOP('',(#163));
#132=EDGE_LOOP('',(#164));
#133=EDGE_LOOP('',(#165));
#134=EDGE_LOOP('',(#166));
#135=EDGE_LOOP('',(#167));
#136=EDGE_LOOP('',(#168));
#137=EDGE_LOOP('',(#169));
#138=EDGE_LOOP('',(#170));
#139=ORIENTED_EDGE('',*,*,#187,.T.);
#140=ORIENTED_EDGE('',*,*,#188,.F.);
#141=ORIENTED_EDGE('',*,*,#189,.T.);
#142=ORIENTED_EDGE('',*,*,#187,.F.);
#143=ORIENTED_EDGE('',*,*,#190,.T.);
#144=ORIENTED_EDGE('',*,*,#189,.F.);
#145=ORIENTED_EDGE('',*,*,#191,.T.);
#146=ORIENTED_EDGE('',*,*,#190,.F.);
#147=ORIENTED_EDGE('',*,*,#192,.T.);
#148=ORIENTED_EDGE('',*,*,#191,.F.);
#149=ORIENTED_EDGE('',*,*,#193,.T.);
#150=ORIENTED_EDGE('',*,*,#192,.F.);
#151=ORIENTED_EDGE('',*,*,#194,.T.);
#152=ORIENTED_EDGE('',*,*,#193,.F.);
#153=ORIENTED_EDGE('',*,*,#195,.T.);
#154=ORIENTED_EDGE('',*,*,#194,.F.);
#155=ORIENTED_EDGE('',*,*,#196,.T.);
#156=ORIENTED_EDGE('',*,*,#195,.F.);
#157=ORIENTED_EDGE('',*,*,#197,.T.);
#158=ORIENTED_EDGE('',*,*,#196,.F.);
#159=ORIENTED_EDGE('',*,*,#198,.T.);
#160=ORIENTED_EDGE('',*,*,#197,.F.);
#161=ORIENTED_EDGE('',*,*,#199,.T.);
#162=ORIENTED_EDGE('',*,*,#198,.F.);
#163=ORIENTED_EDGE('',*,*,#200,.T.);
#164=ORIENTED_EDGE('',*,*,#199,.F.);
#165=ORIENTED_EDGE('',*,*,#201,.T.);
#166=ORIENTED_EDGE('',*,*,#200,.F.);
#167=ORIENTED_EDGE('',*,*,#202,.T.);
#168=ORIENTED_EDGE('',*,*,#201,.F.);
#169=ORIENTED_EDGE('',*,*,#188,.T.);
#170=ORIENTED_EDGE('',*,*,#202,.F.);
#171=VERTEX_POINT('',#338);
#172=VERTEX_POINT('',#340);
#173=VERTEX_POINT('',#343);
#174=VERTEX_POINT('',#346);
#175=VERTEX_POINT('',#349);
#176=VERTEX_POINT('',#352);
#177=VERTEX_POINT('',#355);
#178=VERTEX_POINT('',#358);
#179=VERTEX_POINT('',#361);
#180=VERTEX_POINT('',#364);
#181=VERTEX_POINT('',#367);
#182=VERTEX_POINT('',#370);
#183=VERTEX_POINT('',#373);
#184=VERTEX_POINT('',#376);
#185=VERTEX_POINT('',#379);
#186=VERTEX_POINT('',#382);
#187=EDGE_CURVE('',#171,#171,#203,.T.);
#188=EDGE_CURVE('',#172,#172,#204,.T.);
#189=EDGE_CURVE('',#173,#173,#205,.T.);
#190=EDGE_CURVE('',#174,#174,#206,.T.);
#191=EDGE_CURVE('',#175,#175,#207,.T.);
#192=EDGE_CURVE('',#176,#176,#208,.T.);
#193=EDGE_CURVE('',#177,#177,#209,.T.);
#194=EDGE_CURVE('',#178,#178,#210,.T.);
#195=EDGE_CURVE('',#179,#179,#211,.T.);
#196=EDGE_CURVE('',#180,#180,#212,.T.);
#197=EDGE_CURVE('',#181,#181,#213,.T.);
#198=EDGE_CURVE('',#182,#182,#214,.T.);
#199=EDGE_CURVE('',#183,#183,#215,.T.);
#200=EDGE_CURVE('',#184,#184,#216,.T.);
#201=EDGE_CURVE('',#185,#185,#217,.T.);
#202=EDGE_CURVE('',#186,#186,#218,.T.);
#203=CIRCLE('',#234,1.6);
#204=CIRCLE('',#235,2.14);
#205=CIRCLE('',#237,1.5);
#206=CIRCLE('',#239,1.5);
#207=CIRCLE('',#241,1.6);
#208=CIRCLE('',#243,2.14);
#209=CIRCLE('',#245,2.14);
#210=CIRCLE('',#247,3.003);
#211=CIRCLE('',#249,3.003);
#212=CIRCLE('',#251,3.4);
#213=CIRCLE('',#253,3.5);
#214=CIRCLE('',#255,3.5);
#215=CIRCLE('',#257,3.4);
#216=CIRCLE('',#259,3.003);
#217=CIRCLE('',#261,3.003);
#218=CIRCLE('',#263,2.14);
#219=CURVE_STYLE('',#220,POSITIVE_LENGTH_MEASURE(0.18),#230);
#220=DRAUGHTING_PRE_DEFINED_CURVE_FONT('continuous');
#221=PRESENTATION_LAYER_ASSIGNMENT('1','Layer 1',(#335,#233,#41));
#222=STYLED_ITEM('',(#225),#335);
#223=STYLED_ITEM('',(#226),#233);
#224=STYLED_ITEM('',(#227),#41);
#225=PRESENTATION_STYLE_ASSIGNMENT((#228));
#226=PRESENTATION_STYLE_ASSIGNMENT((#219));
#227=PRESENTATION_STYLE_ASSIGNMENT((#36));
#228=POINT_STYLE('',#229,POSITIVE_LENGTH_MEASURE(3.),#230);
#229=PRE_DEFINED_POINT_MARKER_SYMBOL('plus');
#230=COLOUR_RGB('Light Weak Red',0.8,0.6,0.6);
#231=COLOUR_RGB('RING_COLOR',0.4,0.2,0.2);
#232=AXIS2_PLACEMENT_3D('',#334,#266,#267);
#233=AXIS2_PLACEMENT_3D('',#336,#268,#269);
#234=AXIS2_PLACEMENT_3D('',#337,#270,#271);
#235=AXIS2_PLACEMENT_3D('',#339,#272,#273);
#236=AXIS2_PLACEMENT_3D('',#341,#274,#275);
#237=AXIS2_PLACEMENT_3D('',#342,#276,#277);
#238=AXIS2_PLACEMENT_3D('',#344,#278,#279);
#239=AXIS2_PLACEMENT_3D('',#345,#280,#281);
#240=AXIS2_PLACEMENT_3D('',#347,#282,#283);
#241=AXIS2_PLACEMENT_3D('',#348,#284,#285);
#242=AXIS2_PLACEMENT_3D('',#350,#286,#287);
#243=AXIS2_PLACEMENT_3D('',#351,#288,#289);
#244=AXIS2_PLACEMENT_3D('',#353,#290,#291);
#245=AXIS2_PLACEMENT_3D('',#354,#292,#293);
#246=AXIS2_PLACEMENT_3D('',#356,#294,#295);
#247=AXIS2_PLACEMENT_3D('',#357,#296,#297);
#248=AXIS2_PLACEMENT_3D('',#359,#298,#299);
#249=AXIS2_PLACEMENT_3D('',#360,#300,#301);
#250=AXIS2_PLACEMENT_3D('',#362,#302,#303);
#251=AXIS2_PLACEMENT_3D('',#363,#304,#305);
#252=AXIS2_PLACEMENT_3D('',#365,#306,#307);
#253=AXIS2_PLACEMENT_3D('',#366,#308,#309);
#254=AXIS2_PLACEMENT_3D('',#368,#310,#311);
#255=AXIS2_PLACEMENT_3D('',#369,#312,#313);
#256=AXIS2_PLACEMENT_3D('',#371,#314,#315);
#257=AXIS2_PLACEMENT_3D('',#372,#316,#317);
#258=AXIS2_PLACEMENT_3D('',#374,#318,#319);
#259=AXIS2_PLACEMENT_3D('',#375,#320,#321);
#260=AXIS2_PLACEMENT_3D('',#377,#322,#323);
#261=AXIS2_PLACEMENT_3D('',#378,#324,#325);
#262=AXIS2_PLACEMENT_3D('',#380,#326,#327);
#263=AXIS2_PLACEMENT_3D('',#381,#328,#329);
#264=AXIS2_PLACEMENT_3D('',#383,#330,#331);
#265=AXIS2_PLACEMENT_3D('',#384,#332,#333);
#266=DIRECTION('',(0.,0.,1.));
#267=DIRECTION('',(1.,0.,0.));
#268=DIRECTION('',(0.,0.,1.));
#269=DIRECTION('',(1.,0.,0.));
#270=DIRECTION('',(1.,0.,0.));
#271=DIRECTION('',(0.,0.,-1.));
#272=DIRECTION('',(1.,0.,0.));
#273=DIRECTION('',(0.,0.,-1.));
#274=DIRECTION('',(-1.,0.,0.));
#275=DIRECTION('',(0.,0.,1.));
#276=DIRECTION('',(1.,0.,0.));
#277=DIRECTION('',(0.,0.,-1.));
#278=DIRECTION('',(1.,0.,0.));
#279=DIRECTION('',(0.,0.,-1.));
#280=DIRECTION('',(1.,0.,0.));
#281=DIRECTION('',(0.,0.,-1.));
#282=DIRECTION('',(1.,0.,0.));
#283=DIRECTION('',(0.,0.,-1.));
#284=DIRECTION('',(1.,0.,0.));
#285=DIRECTION('',(0.,0.,-1.));
#286=DIRECTION('',(1.,0.,0.));
#287=DIRECTION('',(0.,0.,-1.));
#288=DIRECTION('',(1.,0.,0.));
#289=DIRECTION('',(0.,0.,-1.));
#290=DIRECTION('',(1.,0.,0.));
#291=DIRECTION('',(0.,0.,-1.));
#292=DIRECTION('',(1.,0.,0.));
#293=DIRECTION('',(0.,0.,-1.));
#294=DIRECTION('',(1.,0.,0.));
#295=DIRECTION('',(0.,0.,-1.));
#296=DIRECTION('',(1.,0.,0.));
#297=DIRECTION('',(0.,0.,-1.));
#298=DIRECTION('',(1.,0.,0.));
#299=DIRECTION('',(0.,0.,-1.));
#300=DIRECTION('',(1.,0.,0.));
#301=DIRECTION('',(0.,0.,-1.));
#302=DIRECTION('',(1.,0.,0.));
#303=DIRECTION('',(0.,0.,-1.));
#304=DIRECTION('',(1.,0.,0.));
#305=DIRECTION('',(0.,0.,-1.));
#306=DIRECTION('',(1.,0.,0.));
#307=DIRECTION('',(0.,0.,-1.));
#308=DIRECTION('',(1.,0.,0.));
#309=DIRECTION('',(0.,0.,-1.));
#310=DIRECTION('',(1.,0.,0.));
#311=DIRECTION('',(0.,0.,-1.));
#312=DIRECTION('',(1.,0.,0.));
#313=DIRECTION('',(0.,0.,-1.));
#314=DIRECTION('',(1.,0.,0.));
#315=DIRECTION('',(0.,0.,-1.));
#316=DIRECTION('',(1.,0.,0.));
#317=DIRECTION('',(0.,0.,-1.));
#318=DIRECTION('',(1.,0.,0.));
#319=DIRECTION('',(0.,0.,-1.));
#320=DIRECTION('',(1.,0.,0.));
#321=DIRECTION('',(0.,0.,-1.));
#322=DIRECTION('',(-1.,0.,0.));
#323=DIRECTION('',(0.,0.,1.));
#324=DIRECTION('',(1.,0.,0.));
#325=DIRECTION('',(0.,0.,-1.));
#326=DIRECTION('',(1.,0.,0.));
#327=DIRECTION('',(0.,0.,-1.));
#328=DIRECTION('',(1.,0.,0.));
#329=DIRECTION('',(0.,0.,-1.));
#330=DIRECTION('',(-1.,0.,0.));
#331=DIRECTION('',(0.,0.,1.));
#332=DIRECTION('',(1.,0.,0.));
#333=DIRECTION('',(0.,0.,-1.));
#334=CARTESIAN_POINT('',(0.,0.,0.));
#335=CARTESIAN_POINT('',(0.,0.,0.));
#336=CARTESIAN_POINT('',(0.,0.,0.));
#337=CARTESIAN_POINT('',(0.,0.,0.));
#338=CARTESIAN_POINT('',(0.,0.,-1.6));
#339=CARTESIAN_POINT('',(0.,0.,0.));
#340=CARTESIAN_POINT('',(0.,0.,-2.14));
#341=CARTESIAN_POINT('',(0.,2.14,0.));
#342=CARTESIAN_POINT('',(0.1,0.,0.));
#343=CARTESIAN_POINT('',(0.1,0.,-1.5));
#344=CARTESIAN_POINT('',(0.1,0.,0.));
#345=CARTESIAN_POINT('',(2.9,0.,0.));
#346=CARTESIAN_POINT('',(2.9,0.,-1.5));
#347=CARTESIAN_POINT('',(2.9,0.,0.));
#348=CARTESIAN_POINT('',(3.,0.,0.));
#349=CARTESIAN_POINT('',(3.,0.,-1.6));
#350=CARTESIAN_POINT('',(2.9,0.,0.));
#351=CARTESIAN_POINT('',(3.,0.,0.));
#352=CARTESIAN_POINT('',(3.,0.,-2.14));
#353=CARTESIAN_POINT('',(3.,1.6,0.));
#354=CARTESIAN_POINT('',(2.92,0.,0.));
#355=CARTESIAN_POINT('',(2.92,0.,-2.14));
#356=CARTESIAN_POINT('',(2.9,0.,0.));
#357=CARTESIAN_POINT('',(2.92,0.,0.));
#358=CARTESIAN_POINT('',(2.92,0.,-3.003));
#359=CARTESIAN_POINT('',(2.92,2.14,0.));
#360=CARTESIAN_POINT('',(3.,0.,0.));
#361=CARTESIAN_POINT('',(3.,0.,-3.003));
#362=CARTESIAN_POINT('',(2.9,0.,0.));
#363=CARTESIAN_POINT('',(3.,0.,0.));
#364=CARTESIAN_POINT('',(3.,0.,-3.4));
#365=CARTESIAN_POINT('',(3.,3.003,0.));
#366=CARTESIAN_POINT('',(2.9,0.,0.));
#367=CARTESIAN_POINT('',(2.9,0.,-3.5));
#368=CARTESIAN_POINT('',(2.9,0.,0.));
#369=CARTESIAN_POINT('',(0.1,0.,0.));
#370=CARTESIAN_POINT('',(0.1,0.,-3.5));
#371=CARTESIAN_POINT('',(2.9,0.,0.));
#372=CARTESIAN_POINT('',(0.,0.,0.));
#373=CARTESIAN_POINT('',(0.,0.,-3.4));
#374=CARTESIAN_POINT('',(0.1,0.,0.));
#375=CARTESIAN_POINT('',(0.,0.,0.));
#376=CARTESIAN_POINT('',(0.,0.,-3.003));
#377=CARTESIAN_POINT('',(2.71050543121376E-17,3.4,0.));
#378=CARTESIAN_POINT('',(0.08,0.,0.));
#379=CARTESIAN_POINT('',(0.08,0.,-3.003));
#380=CARTESIAN_POINT('',(2.9,0.,0.));
#381=CARTESIAN_POINT('',(0.08,0.,0.));
#382=CARTESIAN_POINT('',(0.08,0.,-2.14));
#383=CARTESIAN_POINT('',(0.08,3.003,0.));
#384=CARTESIAN_POINT('',(2.9,0.,0.));
#385=MECHANICAL_DESIGN_GEOMETRIC_PRESENTATION_REPRESENTATION('',(#222,#223,
#224),#386);
#386=(
GEOMETRIC_REPRESENTATION_CONTEXT(3)
GLOBAL_UNCERTAINTY_ASSIGNED_CONTEXT((#387))
GLOBAL_UNIT_ASSIGNED_CONTEXT((#393,#389,#388))
REPRESENTATION_CONTEXT('683ZZ','TOP_LEVEL_ASSEMBLY_PART')
);
#387=UNCERTAINTY_MEASURE_WITH_UNIT(LENGTH_MEASURE(2.E-5),#393,
'DISTANCE_ACCURACY_VALUE','Maximum Tolerance applied to model');
#388=(
NAMED_UNIT(*)
SI_UNIT($,.STERADIAN.)
SOLID_ANGLE_UNIT()
);
#389=(
CONVERSION_BASED_UNIT('DEGREE',#391)
NAMED_UNIT(#390)
PLANE_ANGLE_UNIT()
);
#390=DIMENSIONAL_EXPONENTS(0.,0.,0.,0.,0.,0.,0.);
#391=PLANE_ANGLE_MEASURE_WITH_UNIT(PLANE_ANGLE_MEASURE(0.0174532925),#392);
#392=(
NAMED_UNIT(*)
PLANE_ANGLE_UNIT()
SI_UNIT($,.RADIAN.)
);
#393=(
LENGTH_UNIT()
NAMED_UNIT(*)
SI_UNIT(.MILLI.,.METRE.)
);
ENDSEC;
END-ISO-10303-21;
