ISO-10303-21;
HEADER;
/* Generated by software containing ST-Developer
 * from STEP Tools, Inc. (www.steptools.com) 
 */
/* OPTION: using custom schema-name function */

FILE_DESCRIPTION(
/* description */ (''),
/* implementation_level */ '2;1');

FILE_NAME(
/* name */ '688ZZ.stp',
/* time_stamp */ '2022-07-20T21:19:19+09:00',
/* author */ (''),
/* organization */ (''),
/* preprocessor_version */ 'ST-DEVELOPER v16.7',
/* originating_system */ '',
/* authorisation */ '');

FILE_SCHEMA (('AUTOMOTIVE_DESIGN { 1 0 10303 214 3 1 1 1 }'));
ENDSEC;

DATA;
#10=CONSTRUCTIVE_GEOMETRY_REPRESENTATION_RELATIONSHIP(
'supplemental geometry','',#34,#11);
#11=CONSTRUCTIVE_GEOMETRY_REPRESENTATION('supplemental geometry',(#277),
#466);
#12=GEOMETRICALLY_BOUNDED_WIREFRAME_SHAPE_REPRESENTATION('688ZZ-None',(#35),
#466);
#13=PROPERTY_DEFINITION_REPRESENTATION(#17,#15);
#14=PROPERTY_DEFINITION_REPRESENTATION(#18,#16);
#15=REPRESENTATION('',(#19),#466);
#16=REPRESENTATION('',(#20),#466);
#17=PROPERTY_DEFINITION('pmi validation property','',#25);
#18=PROPERTY_DEFINITION('pmi validation property','',#25);
#19=VALUE_REPRESENTATION_ITEM('number of annotations',COUNT_MEASURE(0.));
#20=VALUE_REPRESENTATION_ITEM('number of views',COUNT_MEASURE(0.));
#21=SHAPE_REPRESENTATION_RELATIONSHIP('None',
'relationship between 688ZZ-None and 688ZZ-None',#34,#23);
#22=SHAPE_REPRESENTATION_RELATIONSHIP('None',
'relationship between 688ZZ-None and 688ZZ-None',#34,#12);
#23=ADVANCED_BREP_SHAPE_REPRESENTATION('688ZZ-None',(#41),#466);
#24=SHAPE_DEFINITION_REPRESENTATION(#25,#34);
#25=PRODUCT_DEFINITION_SHAPE('','',#26);
#26=PRODUCT_DEFINITION(' ','',#28,#27);
#27=PRODUCT_DEFINITION_CONTEXT('part definition',#33,'design');
#28=PRODUCT_DEFINITION_FORMATION_WITH_SPECIFIED_SOURCE(' ',' ',#30,
 .NOT_KNOWN.);
#29=PRODUCT_RELATED_PRODUCT_CATEGORY('part','',(#30));
#30=PRODUCT('688ZZ','688ZZ',' ',(#31));
#31=PRODUCT_CONTEXT(' ',#33,'mechanical');
#32=APPLICATION_PROTOCOL_DEFINITION('international standard',
'automotive_design',2010,#33);
#33=APPLICATION_CONTEXT(
'core data for automotive mechanical design processes');
#34=SHAPE_REPRESENTATION('688ZZ-None',(#276),#466);
#35=GEOMETRIC_CURVE_SET('None',(#403));
#36=SURFACE_STYLE_USAGE(.BOTH.,#37);
#37=SURFACE_SIDE_STYLE('',(#38));
#38=SURFACE_STYLE_FILL_AREA(#39);
#39=FILL_AREA_STYLE('',(#40));
#40=FILL_AREA_STYLE_COLOUR('',#275);
#41=MANIFOLD_SOLID_BREP('L-1680KK_or',#42);
#42=CLOSED_SHELL('',(#55,#56,#57,#58,#59,#60,#61,#62,#63,#64,#65,#66,#67,
#68,#69,#70,#71,#72,#73,#74));
#43=CYLINDRICAL_SURFACE('',#286,7.09);
#44=CYLINDRICAL_SURFACE('',#289,7.09);
#45=CYLINDRICAL_SURFACE('',#296,8.);
#46=CYLINDRICAL_SURFACE('',#305,4.);
#47=CYLINDRICAL_SURFACE('',#313,4.84);
#48=CYLINDRICAL_SURFACE('',#315,4.84);
#49=PLANE('',#282);
#50=PLANE('',#293);
#51=PLANE('',#301);
#52=PLANE('',#309);
#53=PLANE('',#316);
#54=PLANE('',#317);
#55=ADVANCED_FACE('',(#83,#84),#75,.T.);
#56=ADVANCED_FACE('',(#85,#86),#49,.T.);
#57=ADVANCED_FACE('',(#87,#88),#76,.T.);
#58=ADVANCED_FACE('',(#89,#90),#43,.F.);
#59=ADVANCED_FACE('',(#91,#92),#44,.F.);
#60=ADVANCED_FACE('',(#93,#94),#77,.T.);
#61=ADVANCED_FACE('',(#95,#96),#50,.T.);
#62=ADVANCED_FACE('',(#97,#98),#78,.T.);
#63=ADVANCED_FACE('',(#99,#100),#45,.T.);
#64=ADVANCED_FACE('',(#101,#102),#79,.T.);
#65=ADVANCED_FACE('',(#103,#104),#51,.T.);
#66=ADVANCED_FACE('',(#105,#106),#80,.T.);
#67=ADVANCED_FACE('',(#107,#108),#46,.F.);
#68=ADVANCED_FACE('',(#109,#110),#81,.T.);
#69=ADVANCED_FACE('',(#111,#112),#52,.T.);
#70=ADVANCED_FACE('',(#113,#114),#82,.T.);
#71=ADVANCED_FACE('',(#115,#116),#47,.T.);
#72=ADVANCED_FACE('',(#117,#118),#48,.T.);
#73=ADVANCED_FACE('',(#119,#120),#53,.T.);
#74=ADVANCED_FACE('',(#121,#122),#54,.T.);
#75=TOROIDAL_SURFACE('',#280,7.8,0.2);
#76=TOROIDAL_SURFACE('',#284,7.19,0.1);
#77=TOROIDAL_SURFACE('',#291,7.19,0.1);
#78=TOROIDAL_SURFACE('',#295,7.8,0.2);
#79=TOROIDAL_SURFACE('',#299,4.74,0.1);
#80=TOROIDAL_SURFACE('',#303,4.2,0.2);
#81=TOROIDAL_SURFACE('',#307,4.2,0.2);
#82=TOROIDAL_SURFACE('',#311,4.74,0.1);
#83=FACE_BOUND('',#123,.T.);
#84=FACE_BOUND('',#124,.T.);
#85=FACE_BOUND('',#125,.T.);
#86=FACE_BOUND('',#126,.T.);
#87=FACE_BOUND('',#127,.T.);
#88=FACE_BOUND('',#128,.T.);
#89=FACE_BOUND('',#129,.T.);
#90=FACE_BOUND('',#130,.T.);
#91=FACE_BOUND('',#131,.T.);
#92=FACE_BOUND('',#132,.T.);
#93=FACE_BOUND('',#133,.T.);
#94=FACE_BOUND('',#134,.T.);
#95=FACE_BOUND('',#135,.T.);
#96=FACE_BOUND('',#136,.T.);
#97=FACE_BOUND('',#137,.T.);
#98=FACE_BOUND('',#138,.T.);
#99=FACE_BOUND('',#139,.T.);
#100=FACE_BOUND('',#140,.T.);
#101=FACE_BOUND('',#141,.T.);
#102=FACE_BOUND('',#142,.T.);
#103=FACE_BOUND('',#143,.T.);
#104=FACE_BOUND('',#144,.T.);
#105=FACE_BOUND('',#145,.T.);
#106=FACE_BOUND('',#146,.T.);
#107=FACE_BOUND('',#147,.T.);
#108=FACE_BOUND('',#148,.T.);
#109=FACE_BOUND('',#149,.T.);
#110=FACE_BOUND('',#150,.T.);
#111=FACE_BOUND('',#151,.T.);
#112=FACE_BOUND('',#152,.T.);
#113=FACE_BOUND('',#153,.T.);
#114=FACE_BOUND('',#154,.T.);
#115=FACE_BOUND('',#155,.T.);
#116=FACE_BOUND('',#156,.T.);
#117=FACE_BOUND('',#157,.T.);
#118=FACE_BOUND('',#158,.T.);
#119=FACE_BOUND('',#159,.T.);
#120=FACE_BOUND('',#160,.T.);
#121=FACE_BOUND('',#161,.T.);
#122=FACE_BOUND('',#162,.T.);
#123=EDGE_LOOP('',(#163));
#124=EDGE_LOOP('',(#164));
#125=EDGE_LOOP('',(#165));
#126=EDGE_LOOP('',(#166));
#127=EDGE_LOOP('',(#167));
#128=EDGE_LOOP('',(#168));
#129=EDGE_LOOP('',(#169));
#130=EDGE_LOOP('',(#170));
#131=EDGE_LOOP('',(#171));
#132=EDGE_LOOP('',(#172));
#133=EDGE_LOOP('',(#173));
#134=EDGE_LOOP('',(#174));
#135=EDGE_LOOP('',(#175));
#136=EDGE_LOOP('',(#176));
#137=EDGE_LOOP('',(#177));
#138=EDGE_LOOP('',(#178));
#139=EDGE_LOOP('',(#179));
#140=EDGE_LOOP('',(#180));
#141=EDGE_LOOP('',(#181));
#142=EDGE_LOOP('',(#182));
#143=EDGE_LOOP('',(#183));
#144=EDGE_LOOP('',(#184));
#145=EDGE_LOOP('',(#185));
#146=EDGE_LOOP('',(#186));
#147=EDGE_LOOP('',(#187));
#148=EDGE_LOOP('',(#188));
#149=EDGE_LOOP('',(#189));
#150=EDGE_LOOP('',(#190));
#151=EDGE_LOOP('',(#191));
#152=EDGE_LOOP('',(#192));
#153=EDGE_LOOP('',(#193));
#154=EDGE_LOOP('',(#194));
#155=EDGE_LOOP('',(#195));
#156=EDGE_LOOP('',(#196));
#157=EDGE_LOOP('',(#197));
#158=EDGE_LOOP('',(#198));
#159=EDGE_LOOP('',(#199));
#160=EDGE_LOOP('',(#200));
#161=EDGE_LOOP('',(#201));
#162=EDGE_LOOP('',(#202));
#163=ORIENTED_EDGE('',*,*,#223,.T.);
#164=ORIENTED_EDGE('',*,*,#224,.F.);
#165=ORIENTED_EDGE('',*,*,#225,.T.);
#166=ORIENTED_EDGE('',*,*,#223,.F.);
#167=ORIENTED_EDGE('',*,*,#226,.T.);
#168=ORIENTED_EDGE('',*,*,#225,.F.);
#169=ORIENTED_EDGE('',*,*,#227,.F.);
#170=ORIENTED_EDGE('',*,*,#226,.F.);
#171=ORIENTED_EDGE('',*,*,#228,.T.);
#172=ORIENTED_EDGE('',*,*,#229,.F.);
#173=ORIENTED_EDGE('',*,*,#230,.T.);
#174=ORIENTED_EDGE('',*,*,#228,.F.);
#175=ORIENTED_EDGE('',*,*,#231,.T.);
#176=ORIENTED_EDGE('',*,*,#230,.F.);
#177=ORIENTED_EDGE('',*,*,#232,.T.);
#178=ORIENTED_EDGE('',*,*,#231,.F.);
#179=ORIENTED_EDGE('',*,*,#224,.T.);
#180=ORIENTED_EDGE('',*,*,#232,.F.);
#181=ORIENTED_EDGE('',*,*,#233,.T.);
#182=ORIENTED_EDGE('',*,*,#234,.F.);
#183=ORIENTED_EDGE('',*,*,#234,.T.);
#184=ORIENTED_EDGE('',*,*,#235,.F.);
#185=ORIENTED_EDGE('',*,*,#235,.T.);
#186=ORIENTED_EDGE('',*,*,#236,.F.);
#187=ORIENTED_EDGE('',*,*,#236,.T.);
#188=ORIENTED_EDGE('',*,*,#237,.F.);
#189=ORIENTED_EDGE('',*,*,#237,.T.);
#190=ORIENTED_EDGE('',*,*,#238,.F.);
#191=ORIENTED_EDGE('',*,*,#238,.T.);
#192=ORIENTED_EDGE('',*,*,#239,.F.);
#193=ORIENTED_EDGE('',*,*,#239,.T.);
#194=ORIENTED_EDGE('',*,*,#240,.F.);
#195=ORIENTED_EDGE('',*,*,#241,.T.);
#196=ORIENTED_EDGE('',*,*,#240,.T.);
#197=ORIENTED_EDGE('',*,*,#242,.T.);
#198=ORIENTED_EDGE('',*,*,#233,.F.);
#199=ORIENTED_EDGE('',*,*,#227,.T.);
#200=ORIENTED_EDGE('',*,*,#242,.F.);
#201=ORIENTED_EDGE('',*,*,#241,.F.);
#202=ORIENTED_EDGE('',*,*,#229,.T.);
#203=VERTEX_POINT('',#406);
#204=VERTEX_POINT('',#408);
#205=VERTEX_POINT('',#411);
#206=VERTEX_POINT('',#414);
#207=VERTEX_POINT('',#417);
#208=VERTEX_POINT('',#420);
#209=VERTEX_POINT('',#422);
#210=VERTEX_POINT('',#425);
#211=VERTEX_POINT('',#428);
#212=VERTEX_POINT('',#431);
#213=VERTEX_POINT('',#435);
#214=VERTEX_POINT('',#437);
#215=VERTEX_POINT('',#440);
#216=VERTEX_POINT('',#443);
#217=VERTEX_POINT('',#446);
#218=VERTEX_POINT('',#449);
#219=VERTEX_POINT('',#452);
#220=VERTEX_POINT('',#455);
#221=VERTEX_POINT('',#458);
#222=VERTEX_POINT('',#461);
#223=EDGE_CURVE('',#203,#203,#243,.T.);
#224=EDGE_CURVE('',#204,#204,#244,.T.);
#225=EDGE_CURVE('',#205,#205,#245,.T.);
#226=EDGE_CURVE('',#206,#206,#246,.T.);
#227=EDGE_CURVE('',#207,#207,#247,.T.);
#228=EDGE_CURVE('',#208,#208,#248,.T.);
#229=EDGE_CURVE('',#209,#209,#249,.T.);
#230=EDGE_CURVE('',#210,#210,#250,.T.);
#231=EDGE_CURVE('',#211,#211,#251,.T.);
#232=EDGE_CURVE('',#212,#212,#252,.T.);
#233=EDGE_CURVE('',#213,#213,#253,.T.);
#234=EDGE_CURVE('',#214,#214,#254,.T.);
#235=EDGE_CURVE('',#215,#215,#255,.T.);
#236=EDGE_CURVE('',#216,#216,#256,.T.);
#237=EDGE_CURVE('',#217,#217,#257,.T.);
#238=EDGE_CURVE('',#218,#218,#258,.T.);
#239=EDGE_CURVE('',#219,#219,#259,.T.);
#240=EDGE_CURVE('',#220,#220,#260,.T.);
#241=EDGE_CURVE('',#221,#221,#261,.T.);
#242=EDGE_CURVE('',#222,#222,#262,.T.);
#243=CIRCLE('',#278,7.8);
#244=CIRCLE('',#279,8.);
#245=CIRCLE('',#281,7.19);
#246=CIRCLE('',#283,7.09);
#247=CIRCLE('',#285,7.09);
#248=CIRCLE('',#287,7.09);
#249=CIRCLE('',#288,7.09);
#250=CIRCLE('',#290,7.19);
#251=CIRCLE('',#292,7.8);
#252=CIRCLE('',#294,8.);
#253=CIRCLE('',#297,4.84);
#254=CIRCLE('',#298,4.74);
#255=CIRCLE('',#300,4.2);
#256=CIRCLE('',#302,4.);
#257=CIRCLE('',#304,4.);
#258=CIRCLE('',#306,4.2);
#259=CIRCLE('',#308,4.74);
#260=CIRCLE('',#310,4.84);
#261=CIRCLE('',#312,4.84);
#262=CIRCLE('',#314,4.84);
#263=CURVE_STYLE('',#264,POSITIVE_LENGTH_MEASURE(0.18),#274);
#264=DRAUGHTING_PRE_DEFINED_CURVE_FONT('continuous');
#265=PRESENTATION_LAYER_ASSIGNMENT('1','Layer 1',(#403,#277,#41));
#266=STYLED_ITEM('',(#269),#403);
#267=STYLED_ITEM('',(#270),#277);
#268=STYLED_ITEM('',(#271),#41);
#269=PRESENTATION_STYLE_ASSIGNMENT((#272));
#270=PRESENTATION_STYLE_ASSIGNMENT((#263));
#271=PRESENTATION_STYLE_ASSIGNMENT((#36));
#272=POINT_STYLE('',#273,POSITIVE_LENGTH_MEASURE(3.),#274);
#273=PRE_DEFINED_POINT_MARKER_SYMBOL('plus');
#274=COLOUR_RGB('Light Weak Red',0.8,0.6,0.6);
#275=COLOUR_RGB('RING_COLOR',0.4,0.2,0.2);
#276=AXIS2_PLACEMENT_3D('',#402,#318,#319);
#277=AXIS2_PLACEMENT_3D('',#404,#320,#321);
#278=AXIS2_PLACEMENT_3D('',#405,#322,#323);
#279=AXIS2_PLACEMENT_3D('',#407,#324,#325);
#280=AXIS2_PLACEMENT_3D('',#409,#326,#327);
#281=AXIS2_PLACEMENT_3D('',#410,#328,#329);
#282=AXIS2_PLACEMENT_3D('',#412,#330,#331);
#283=AXIS2_PLACEMENT_3D('',#413,#332,#333);
#284=AXIS2_PLACEMENT_3D('',#415,#334,#335);
#285=AXIS2_PLACEMENT_3D('',#416,#336,#337);
#286=AXIS2_PLACEMENT_3D('',#418,#338,#339);
#287=AXIS2_PLACEMENT_3D('',#419,#340,#341);
#288=AXIS2_PLACEMENT_3D('',#421,#342,#343);
#289=AXIS2_PLACEMENT_3D('',#423,#344,#345);
#290=AXIS2_PLACEMENT_3D('',#424,#346,#347);
#291=AXIS2_PLACEMENT_3D('',#426,#348,#349);
#292=AXIS2_PLACEMENT_3D('',#427,#350,#351);
#293=AXIS2_PLACEMENT_3D('',#429,#352,#353);
#294=AXIS2_PLACEMENT_3D('',#430,#354,#355);
#295=AXIS2_PLACEMENT_3D('',#432,#356,#357);
#296=AXIS2_PLACEMENT_3D('',#433,#358,#359);
#297=AXIS2_PLACEMENT_3D('',#434,#360,#361);
#298=AXIS2_PLACEMENT_3D('',#436,#362,#363);
#299=AXIS2_PLACEMENT_3D('',#438,#364,#365);
#300=AXIS2_PLACEMENT_3D('',#439,#366,#367);
#301=AXIS2_PLACEMENT_3D('',#441,#368,#369);
#302=AXIS2_PLACEMENT_3D('',#442,#370,#371);
#303=AXIS2_PLACEMENT_3D('',#444,#372,#373);
#304=AXIS2_PLACEMENT_3D('',#445,#374,#375);
#305=AXIS2_PLACEMENT_3D('',#447,#376,#377);
#306=AXIS2_PLACEMENT_3D('',#448,#378,#379);
#307=AXIS2_PLACEMENT_3D('',#450,#380,#381);
#308=AXIS2_PLACEMENT_3D('',#451,#382,#383);
#309=AXIS2_PLACEMENT_3D('',#453,#384,#385);
#310=AXIS2_PLACEMENT_3D('',#454,#386,#387);
#311=AXIS2_PLACEMENT_3D('',#456,#388,#389);
#312=AXIS2_PLACEMENT_3D('',#457,#390,#391);
#313=AXIS2_PLACEMENT_3D('',#459,#392,#393);
#314=AXIS2_PLACEMENT_3D('',#460,#394,#395);
#315=AXIS2_PLACEMENT_3D('',#462,#396,#397);
#316=AXIS2_PLACEMENT_3D('',#463,#398,#399);
#317=AXIS2_PLACEMENT_3D('',#464,#400,#401);
#318=DIRECTION('',(0.,0.,1.));
#319=DIRECTION('',(1.,0.,0.));
#320=DIRECTION('',(0.,0.,1.));
#321=DIRECTION('',(1.,0.,0.));
#322=DIRECTION('',(-1.,1.77635683940025E-16,0.));
#323=DIRECTION('',(-2.22400445638052E-16,-1.,0.));
#324=DIRECTION('',(-1.,1.77635683940025E-16,0.));
#325=DIRECTION('',(-2.16840434497101E-16,-1.,0.));
#326=DIRECTION('',(-1.,1.77635683940025E-16,0.));
#327=DIRECTION('',(-2.16840434497101E-16,-1.,0.));
#328=DIRECTION('',(-1.,1.77635683940025E-16,0.));
#329=DIRECTION('',(-1.20634455909375E-16,-1.,0.));
#330=DIRECTION('',(1.,-1.77635683940025E-16,0.));
#331=DIRECTION('',(1.77809156287623E-16,1.,0.));
#332=DIRECTION('',(-1.,1.77635683940025E-16,0.));
#333=DIRECTION('',(-1.22335929194415E-16,-1.,0.));
#334=DIRECTION('',(-1.,1.77635683940025E-16,0.));
#335=DIRECTION('',(-1.18979662275501E-16,-1.,0.));
#336=DIRECTION('',(1.,0.,0.));
#337=DIRECTION('',(0.,0.,-1.));
#338=DIRECTION('',(-1.,1.77635683940025E-16,0.));
#339=DIRECTION('',(-1.77635683940025E-16,-1.,0.));
#340=DIRECTION('',(-1.,1.77635683940025E-16,0.));
#341=DIRECTION('',(-1.77769397110635E-16,-1.,0.));
#342=DIRECTION('',(-1.,1.77635683940025E-16,0.));
#343=DIRECTION('',(-1.75857898216972E-16,-1.,0.));
#344=DIRECTION('',(-1.,1.77635683940025E-16,0.));
#345=DIRECTION('',(-1.77635683940025E-16,-1.,0.));
#346=DIRECTION('',(-1.,1.77635683940025E-16,0.));
#347=DIRECTION('',(-1.77635683940025E-16,-1.,0.));
#348=DIRECTION('',(-1.,1.77635683940025E-16,0.));
#349=DIRECTION('',(-1.78469493413252E-16,-1.,0.));
#350=DIRECTION('',(-1.,1.77635683940025E-16,0.));
#351=DIRECTION('',(-1.77635683940025E-16,-1.,0.));
#352=DIRECTION('',(-1.,1.77635683940025E-16,0.));
#353=DIRECTION('',(-1.77635683940025E-16,-1.,0.));
#354=DIRECTION('',(-1.,1.77635683940025E-16,0.));
#355=DIRECTION('',(-1.76182853028894E-16,-1.,0.));
#356=DIRECTION('',(-1.,1.77635683940025E-16,0.));
#357=DIRECTION('',(-1.76182853028894E-16,-1.,0.));
#358=DIRECTION('',(-1.,1.77635683940025E-16,0.));
#359=DIRECTION('',(-1.77635683940025E-16,-1.,0.));
#360=DIRECTION('',(1.,-1.77635683940025E-16,0.));
#361=DIRECTION('',(1.79206970658761E-16,1.,0.));
#362=DIRECTION('',(1.,-1.77635683940025E-16,0.));
#363=DIRECTION('',(1.82987708436372E-16,1.,0.));
#364=DIRECTION('',(1.,-1.77635683940025E-16,0.));
#365=DIRECTION('',(1.79206970658761E-16,1.,0.));
#366=DIRECTION('',(1.,-1.77635683940025E-16,0.));
#367=DIRECTION('',(2.06514699521048E-16,1.,0.));
#368=DIRECTION('',(1.,-1.77635683940025E-16,0.));
#369=DIRECTION('',(1.77809156287623E-16,1.,0.));
#370=DIRECTION('',(1.,-1.77635683940025E-16,0.));
#371=DIRECTION('',(2.16840434497101E-16,1.,0.));
#372=DIRECTION('',(1.,-1.77635683940025E-16,0.));
#373=DIRECTION('',(1.97127667724637E-16,1.,0.));
#374=DIRECTION('',(1.,-1.77635683940025E-16,0.));
#375=DIRECTION('',(1.76182853028894E-16,1.,0.));
#376=DIRECTION('',(1.,-1.77635683940025E-16,0.));
#377=DIRECTION('',(2.16840434497101E-16,1.,0.));
#378=DIRECTION('',(1.,-1.77635683940025E-16,0.));
#379=DIRECTION('',(1.77635683940025E-16,1.,0.));
#380=DIRECTION('',(1.,-1.77635683940025E-16,0.));
#381=DIRECTION('',(1.78646948875452E-16,1.,0.));
#382=DIRECTION('',(1.,-1.77635683940025E-16,0.));
#383=DIRECTION('',(1.77635683940025E-16,1.,0.));
#384=DIRECTION('',(-1.,1.77635683940025E-16,0.));
#385=DIRECTION('',(-1.77635683940025E-16,-1.,0.));
#386=DIRECTION('',(1.,-1.77635683940025E-16,0.));
#387=DIRECTION('',(1.76406861742218E-16,1.,0.));
#388=DIRECTION('',(1.,-1.77635683940025E-16,0.));
#389=DIRECTION('',(1.76406861742218E-16,1.,0.));
#390=DIRECTION('',(-1.,0.,0.));
#391=DIRECTION('',(0.,0.,1.));
#392=DIRECTION('',(1.,-1.77635683940025E-16,0.));
#393=DIRECTION('',(1.79206970658761E-16,1.,0.));
#394=DIRECTION('',(1.,0.,0.));
#395=DIRECTION('',(0.,0.,-1.));
#396=DIRECTION('',(1.,-1.77635683940025E-16,0.));
#397=DIRECTION('',(1.79206970658761E-16,1.,0.));
#398=DIRECTION('',(1.,0.,0.));
#399=DIRECTION('',(0.,0.,1.));
#400=DIRECTION('',(-1.,0.,0.));
#401=DIRECTION('',(0.,0.,1.));
#402=CARTESIAN_POINT('',(0.,0.,0.));
#403=CARTESIAN_POINT('',(0.,0.,0.));
#404=CARTESIAN_POINT('',(0.,0.,0.));
#405=CARTESIAN_POINT('',(5.,5.82016719913287E-16,0.));
#406=CARTESIAN_POINT('',(5.,-7.8,0.));
#407=CARTESIAN_POINT('',(4.8,6.17543856701291E-16,0.));
#408=CARTESIAN_POINT('',(4.8,-8.,0.));
#409=CARTESIAN_POINT('',(4.8,5.61200038201565E-16,0.));
#410=CARTESIAN_POINT('',(5.,5.82016719913287E-16,0.));
#411=CARTESIAN_POINT('',(5.,-7.19,0.));
#412=CARTESIAN_POINT('',(5.,-7.8,0.));
#413=CARTESIAN_POINT('',(4.9,5.99780288307288E-16,0.));
#414=CARTESIAN_POINT('',(4.9,-7.09,0.));
#415=CARTESIAN_POINT('',(4.9,5.61200038201565E-16,0.));
#416=CARTESIAN_POINT('',(4.6,6.53070993489296E-16,0.));
#417=CARTESIAN_POINT('',(4.6,6.53070993489296E-16,-7.09));
#418=CARTESIAN_POINT('',(0.,1.47019513961341E-15,0.));
#419=CARTESIAN_POINT('',(0.1,1.45243157121941E-15,0.));
#420=CARTESIAN_POINT('',(0.0999999999999987,-7.09,0.));
#421=CARTESIAN_POINT('',(0.4,1.3991408660374E-15,0.));
#422=CARTESIAN_POINT('',(0.399999999999999,-7.09,0.));
#423=CARTESIAN_POINT('',(0.,1.47019513961341E-15,0.));
#424=CARTESIAN_POINT('',(0.,1.47019513961341E-15,0.));
#425=CARTESIAN_POINT('',(-1.27720056752878E-15,-7.19,0.));
#426=CARTESIAN_POINT('',(0.1,1.42856177618997E-15,0.));
#427=CARTESIAN_POINT('',(0.,1.47019513961341E-15,0.));
#428=CARTESIAN_POINT('',(-1.38555833473219E-15,-7.8,0.));
#429=CARTESIAN_POINT('',(0.,-7.19,0.));
#430=CARTESIAN_POINT('',(0.2,1.43466800282541E-15,0.));
#431=CARTESIAN_POINT('',(0.199999999999999,-8.,0.));
#432=CARTESIAN_POINT('',(0.2,1.42856177618997E-15,0.));
#433=CARTESIAN_POINT('',(0.,1.47019513961341E-15,0.));
#434=CARTESIAN_POINT('',(4.9,-8.70414851306123E-16,0.));
#435=CARTESIAN_POINT('',(4.9,4.84,0.));
#436=CARTESIAN_POINT('',(5.,-8.88178419700125E-16,0.));
#437=CARTESIAN_POINT('',(5.,4.74,0.));
#438=CARTESIAN_POINT('',(4.9,-8.67361737988404E-16,0.));
#439=CARTESIAN_POINT('',(5.,-8.88178419700125E-16,0.));
#440=CARTESIAN_POINT('',(5.,4.2,0.));
#441=CARTESIAN_POINT('',(5.,4.2,0.));
#442=CARTESIAN_POINT('',(4.8,-8.5265128291212E-16,0.));
#443=CARTESIAN_POINT('',(4.8,4.,0.));
#444=CARTESIAN_POINT('',(4.8,-8.67361737988404E-16,0.));
#445=CARTESIAN_POINT('',(0.2,-3.55271367880047E-17,0.));
#446=CARTESIAN_POINT('',(0.200000000000001,4.,0.));
#447=CARTESIAN_POINT('',(5.,-8.88178419700125E-16,0.));
#448=CARTESIAN_POINT('',(-8.67361737988404E-16,1.92592994438723E-31,0.));
#449=CARTESIAN_POINT('',(-1.21291865440299E-16,4.2,0.));
#450=CARTESIAN_POINT('',(0.2,0.,0.));
#451=CARTESIAN_POINT('',(-8.67361737988404E-16,1.92592994438723E-31,0.));
#452=CARTESIAN_POINT('',(-2.53685961126855E-17,4.74,0.));
#453=CARTESIAN_POINT('',(4.79616346638068E-17,4.74,0.));
#454=CARTESIAN_POINT('',(0.1,-1.77635683940024E-17,0.));
#455=CARTESIAN_POINT('',(0.100000000000001,4.84,0.));
#456=CARTESIAN_POINT('',(0.099999999999998,0.,0.));
#457=CARTESIAN_POINT('',(0.4,-7.10542735760101E-17,0.));
#458=CARTESIAN_POINT('',(0.4,-7.10542735760101E-17,4.84));
#459=CARTESIAN_POINT('',(5.,-8.88178419700125E-16,0.));
#460=CARTESIAN_POINT('',(4.6,-8.17124146124115E-16,0.));
#461=CARTESIAN_POINT('',(4.6,-8.17124146124115E-16,-4.84));
#462=CARTESIAN_POINT('',(5.,-8.88178419700125E-16,0.));
#463=CARTESIAN_POINT('',(4.6,-7.19,0.));
#464=CARTESIAN_POINT('',(0.4,7.19,0.));
#465=MECHANICAL_DESIGN_GEOMETRIC_PRESENTATION_REPRESENTATION('',(#266,#267,
#268),#466);
#466=(
GEOMETRIC_REPRESENTATION_CONTEXT(3)
GLOBAL_UNCERTAINTY_ASSIGNED_CONTEXT((#467))
GLOBAL_UNIT_ASSIGNED_CONTEXT((#473,#469,#468))
REPRESENTATION_CONTEXT('688ZZ','TOP_LEVEL_ASSEMBLY_PART')
);
#467=UNCERTAINTY_MEASURE_WITH_UNIT(LENGTH_MEASURE(2.E-5),#473,
'DISTANCE_ACCURACY_VALUE','Maximum Tolerance applied to model');
#468=(
NAMED_UNIT(*)
SI_UNIT($,.STERADIAN.)
SOLID_ANGLE_UNIT()
);
#469=(
CONVERSION_BASED_UNIT('DEGREE',#471)
NAMED_UNIT(#470)
PLANE_ANGLE_UNIT()
);
#470=DIMENSIONAL_EXPONENTS(0.,0.,0.,0.,0.,0.,0.);
#471=PLANE_ANGLE_MEASURE_WITH_UNIT(PLANE_ANGLE_MEASURE(0.0174532925),#472);
#472=(
NAMED_UNIT(*)
PLANE_ANGLE_UNIT()
SI_UNIT($,.RADIAN.)
);
#473=(
LENGTH_UNIT()
NAMED_UNIT(*)
SI_UNIT(.MILLI.,.METRE.)
);
ENDSEC;
END-ISO-10303-21;
