ISO-10303-21;
HEADER;
/* Generated by software containing ST-Developer
 * from STEP Tools, Inc. (www.steptools.com) 
 */
/* OPTION: using custom schema-name function */

FILE_DESCRIPTION(
/* description */ (''),
/* implementation_level */ '2;1');

FILE_NAME(
/* name */ 'IDLER_SPACER_J1.stp',
/* time_stamp */ '2022-07-20T21:20:41+09:00',
/* author */ (''),
/* organization */ (''),
/* preprocessor_version */ 'ST-DEVELOPER v16.7',
/* originating_system */ '',
/* authorisation */ '');

FILE_SCHEMA (('AUTOMOTIVE_DESIGN { 1 0 10303 214 3 1 1 1 }'));
ENDSEC;

DATA;
#10=CONSTRUCTIVE_GEOMETRY_REPRESENTATION_RELATIONSHIP(
'supplemental geometry','',#34,#11);
#11=CONSTRUCTIVE_GEOMETRY_REPRESENTATION('supplemental geometry',(#112),
#166);
#12=GEOMETRICALLY_BOUNDED_WIREFRAME_SHAPE_REPRESENTATION(
'IDLER_SPACER_J1-None',(#35),#166);
#13=PROPERTY_DEFINITION_REPRESENTATION(#17,#15);
#14=PROPERTY_DEFINITION_REPRESENTATION(#18,#16);
#15=REPRESENTATION('',(#19),#166);
#16=REPRESENTATION('',(#20),#166);
#17=PROPERTY_DEFINITION('pmi validation property','',#25);
#18=PROPERTY_DEFINITION('pmi validation property','',#25);
#19=VALUE_REPRESENTATION_ITEM('number of annotations',COUNT_MEASURE(0.));
#20=VALUE_REPRESENTATION_ITEM('number of views',COUNT_MEASURE(0.));
#21=SHAPE_REPRESENTATION_RELATIONSHIP('None',
'relationship between IDLER_SPACER_J1-None and IDLER_SPACER_J1-None',#34,
#23);
#22=SHAPE_REPRESENTATION_RELATIONSHIP('None',
'relationship between IDLER_SPACER_J1-None and IDLER_SPACER_J1-None',#34,
#12);
#23=ADVANCED_BREP_SHAPE_REPRESENTATION('IDLER_SPACER_J1-None',(#41),#166);
#24=SHAPE_DEFINITION_REPRESENTATION(#25,#34);
#25=PRODUCT_DEFINITION_SHAPE('','',#26);
#26=PRODUCT_DEFINITION(' ','',#28,#27);
#27=PRODUCT_DEFINITION_CONTEXT('part definition',#33,'design');
#28=PRODUCT_DEFINITION_FORMATION_WITH_SPECIFIED_SOURCE(' ',' ',#30,
 .NOT_KNOWN.);
#29=PRODUCT_RELATED_PRODUCT_CATEGORY('part','',(#30));
#30=PRODUCT('IDLER_SPACER_J1','IDLER_SPACER_J1',' ',(#31));
#31=PRODUCT_CONTEXT(' ',#33,'mechanical');
#32=APPLICATION_PROTOCOL_DEFINITION('international standard',
'automotive_design',2010,#33);
#33=APPLICATION_CONTEXT(
'core data for automotive mechanical design processes');
#34=SHAPE_REPRESENTATION('IDLER_SPACER_J1-None',(#111),#166);
#35=GEOMETRIC_CURVE_SET('None',(#148));
#36=SURFACE_STYLE_USAGE(.BOTH.,#37);
#37=SURFACE_SIDE_STYLE('',(#38));
#38=SURFACE_STYLE_FILL_AREA(#39);
#39=FILL_AREA_STYLE('',(#40));
#40=FILL_AREA_STYLE_COLOUR('',#110);
#41=MANIFOLD_SOLID_BREP('',#42);
#42=CLOSED_SHELL('',(#46,#47,#48,#49,#50));
#43=CONICAL_SURFACE('',#121,2.5,45.);
#44=CYLINDRICAL_SURFACE('',#117,1.5);
#45=CYLINDRICAL_SURFACE('',#122,3.5);
#46=ADVANCED_FACE('',(#53,#54),#51,.F.);
#47=ADVANCED_FACE('',(#55,#56),#44,.F.);
#48=ADVANCED_FACE('',(#57,#58),#52,.F.);
#49=ADVANCED_FACE('',(#59,#60),#43,.T.);
#50=ADVANCED_FACE('',(#61,#62),#45,.T.);
#51=PLANE('',#115);
#52=PLANE('',#119);
#53=FACE_BOUND('',#63,.T.);
#54=FACE_BOUND('',#64,.T.);
#55=FACE_BOUND('',#65,.T.);
#56=FACE_BOUND('',#66,.T.);
#57=FACE_BOUND('',#67,.T.);
#58=FACE_BOUND('',#68,.T.);
#59=FACE_BOUND('',#69,.T.);
#60=FACE_BOUND('',#70,.T.);
#61=FACE_BOUND('',#71,.T.);
#62=FACE_BOUND('',#72,.T.);
#63=EDGE_LOOP('',(#73));
#64=EDGE_LOOP('',(#74));
#65=EDGE_LOOP('',(#75));
#66=EDGE_LOOP('',(#76));
#67=EDGE_LOOP('',(#77));
#68=EDGE_LOOP('',(#78));
#69=EDGE_LOOP('',(#79));
#70=EDGE_LOOP('',(#80));
#71=EDGE_LOOP('',(#81));
#72=EDGE_LOOP('',(#82));
#73=ORIENTED_EDGE('',*,*,#88,.F.);
#74=ORIENTED_EDGE('',*,*,#89,.T.);
#75=ORIENTED_EDGE('',*,*,#90,.F.);
#76=ORIENTED_EDGE('',*,*,#88,.T.);
#77=ORIENTED_EDGE('',*,*,#91,.F.);
#78=ORIENTED_EDGE('',*,*,#90,.T.);
#79=ORIENTED_EDGE('',*,*,#92,.F.);
#80=ORIENTED_EDGE('',*,*,#91,.T.);
#81=ORIENTED_EDGE('',*,*,#89,.F.);
#82=ORIENTED_EDGE('',*,*,#92,.T.);
#83=VERTEX_POINT('',#151);
#84=VERTEX_POINT('',#153);
#85=VERTEX_POINT('',#156);
#86=VERTEX_POINT('',#159);
#87=VERTEX_POINT('',#162);
#88=EDGE_CURVE('',#83,#83,#93,.T.);
#89=EDGE_CURVE('',#84,#84,#94,.T.);
#90=EDGE_CURVE('',#85,#85,#95,.T.);
#91=EDGE_CURVE('',#86,#86,#96,.T.);
#92=EDGE_CURVE('',#87,#87,#97,.T.);
#93=CIRCLE('',#113,1.5);
#94=CIRCLE('',#114,3.5);
#95=CIRCLE('',#116,1.5);
#96=CIRCLE('',#118,2.5);
#97=CIRCLE('',#120,3.5);
#98=CURVE_STYLE('',#99,POSITIVE_LENGTH_MEASURE(0.18),#109);
#99=DRAUGHTING_PRE_DEFINED_CURVE_FONT('continuous');
#100=PRESENTATION_LAYER_ASSIGNMENT('1','Layer 1',(#148,#112,#41));
#101=STYLED_ITEM('',(#104),#148);
#102=STYLED_ITEM('',(#105),#112);
#103=STYLED_ITEM('',(#106),#41);
#104=PRESENTATION_STYLE_ASSIGNMENT((#107));
#105=PRESENTATION_STYLE_ASSIGNMENT((#98));
#106=PRESENTATION_STYLE_ASSIGNMENT((#36));
#107=POINT_STYLE('',#108,POSITIVE_LENGTH_MEASURE(3.),#109);
#108=PRE_DEFINED_POINT_MARKER_SYMBOL('plus');
#109=COLOUR_RGB('Light Weak Red',0.8,0.6,0.6);
#110=COLOUR_RGB('Light Gray',0.6,0.6,0.6);
#111=AXIS2_PLACEMENT_3D('',#147,#123,#124);
#112=AXIS2_PLACEMENT_3D('',#149,#125,#126);
#113=AXIS2_PLACEMENT_3D('',#150,#127,#128);
#114=AXIS2_PLACEMENT_3D('',#152,#129,#130);
#115=AXIS2_PLACEMENT_3D('',#154,#131,#132);
#116=AXIS2_PLACEMENT_3D('',#155,#133,#134);
#117=AXIS2_PLACEMENT_3D('',#157,#135,#136);
#118=AXIS2_PLACEMENT_3D('',#158,#137,#138);
#119=AXIS2_PLACEMENT_3D('',#160,#139,#140);
#120=AXIS2_PLACEMENT_3D('',#161,#141,#142);
#121=AXIS2_PLACEMENT_3D('',#163,#143,#144);
#122=AXIS2_PLACEMENT_3D('',#164,#145,#146);
#123=DIRECTION('',(0.,0.,1.));
#124=DIRECTION('',(1.,0.,0.));
#125=DIRECTION('',(0.,0.,1.));
#126=DIRECTION('',(1.,0.,0.));
#127=DIRECTION('',(0.,-1.,0.));
#128=DIRECTION('',(0.,0.,-1.));
#129=DIRECTION('',(0.,-1.,0.));
#130=DIRECTION('',(0.,0.,-1.));
#131=DIRECTION('',(0.,1.,0.));
#132=DIRECTION('',(0.,0.,1.));
#133=DIRECTION('',(0.,-1.,0.));
#134=DIRECTION('',(0.,0.,-1.));
#135=DIRECTION('',(0.,-1.,0.));
#136=DIRECTION('',(0.,0.,-1.));
#137=DIRECTION('',(0.,-1.,0.));
#138=DIRECTION('',(0.,0.,-1.));
#139=DIRECTION('',(0.,-1.,0.));
#140=DIRECTION('',(0.,0.,-1.));
#141=DIRECTION('',(0.,-1.,0.));
#142=DIRECTION('',(0.,0.,-1.));
#143=DIRECTION('',(0.,-1.,0.));
#144=DIRECTION('',(0.,-2.59559622340669E-17,-1.));
#145=DIRECTION('',(0.,-1.,0.));
#146=DIRECTION('',(0.,0.,-1.));
#147=CARTESIAN_POINT('',(0.,0.,0.));
#148=CARTESIAN_POINT('',(0.,0.,0.));
#149=CARTESIAN_POINT('',(0.,0.,0.));
#150=CARTESIAN_POINT('',(0.,-3.5527136788005E-15,0.));
#151=CARTESIAN_POINT('',(0.,-3.5527136788005E-15,-1.5));
#152=CARTESIAN_POINT('',(0.,5.55111512312578E-17,0.));
#153=CARTESIAN_POINT('',(0.,5.55111512312578E-17,-3.5));
#154=CARTESIAN_POINT('',(0.,-1.74860126378462E-15,3.5));
#155=CARTESIAN_POINT('',(0.,2.25,0.));
#156=CARTESIAN_POINT('',(0.,2.25,-1.5));
#157=CARTESIAN_POINT('',(0.,0.,0.));
#158=CARTESIAN_POINT('',(0.,2.25,0.));
#159=CARTESIAN_POINT('',(0.,2.25,-2.5));
#160=CARTESIAN_POINT('',(0.,2.25,1.5));
#161=CARTESIAN_POINT('',(0.,1.25,0.));
#162=CARTESIAN_POINT('',(0.,1.25,-3.5));
#163=CARTESIAN_POINT('',(0.,2.25,0.));
#164=CARTESIAN_POINT('',(0.,0.,0.));
#165=MECHANICAL_DESIGN_GEOMETRIC_PRESENTATION_REPRESENTATION('',(#101,#102,
#103),#166);
#166=(
GEOMETRIC_REPRESENTATION_CONTEXT(3)
GLOBAL_UNCERTAINTY_ASSIGNED_CONTEXT((#167))
GLOBAL_UNIT_ASSIGNED_CONTEXT((#173,#169,#168))
REPRESENTATION_CONTEXT('IDLER_SPACER_J1','TOP_LEVEL_ASSEMBLY_PART')
);
#167=UNCERTAINTY_MEASURE_WITH_UNIT(LENGTH_MEASURE(2.E-5),#173,
'DISTANCE_ACCURACY_VALUE','Maximum Tolerance applied to model');
#168=(
NAMED_UNIT(*)
SI_UNIT($,.STERADIAN.)
SOLID_ANGLE_UNIT()
);
#169=(
CONVERSION_BASED_UNIT('DEGREE',#171)
NAMED_UNIT(#170)
PLANE_ANGLE_UNIT()
);
#170=DIMENSIONAL_EXPONENTS(0.,0.,0.,0.,0.,0.,0.);
#171=PLANE_ANGLE_MEASURE_WITH_UNIT(PLANE_ANGLE_MEASURE(0.0174532925),#172);
#172=(
NAMED_UNIT(*)
PLANE_ANGLE_UNIT()
SI_UNIT($,.RADIAN.)
);
#173=(
LENGTH_UNIT()
NAMED_UNIT(*)
SI_UNIT(.MILLI.,.METRE.)
);
ENDSEC;
END-ISO-10303-21;
