ISO-10303-21;
HEADER;
/* Generated by software containing ST-Developer
 * from STEP Tools, Inc. (www.steptools.com) 
 */
/* OPTION: using custom schema-name function */

FILE_DESCRIPTION(
/* description */ (''),
/* implementation_level */ '2;1');

FILE_NAME(
/* name */ 'J1_MAIN_SHAFT.stp',
/* time_stamp */ '2022-07-20T21:20:57+09:00',
/* author */ (''),
/* organization */ (''),
/* preprocessor_version */ 'ST-DEVELOPER v16.7',
/* originating_system */ '',
/* authorisation */ '');

FILE_SCHEMA (('AUTOMOTIVE_DESIGN { 1 0 10303 214 3 1 1 1 }'));
ENDSEC;

DATA;
#10=CONSTRUCTIVE_GEOMETRY_REPRESENTATION_RELATIONSHIP(
'supplemental geometry','',#34,#11);
#11=CONSTRUCTIVE_GEOMETRY_REPRESENTATION('supplemental geometry',(#393),
#660);
#12=GEOMETRICALLY_BOUNDED_WIREFRAME_SHAPE_REPRESENTATION(
'J1_MAIN_SHAFT-None',(#35),#660);
#13=PROPERTY_DEFINITION_REPRESENTATION(#17,#15);
#14=PROPERTY_DEFINITION_REPRESENTATION(#18,#16);
#15=REPRESENTATION('',(#19),#660);
#16=REPRESENTATION('',(#20),#660);
#17=PROPERTY_DEFINITION('pmi validation property','',#25);
#18=PROPERTY_DEFINITION('pmi validation property','',#25);
#19=VALUE_REPRESENTATION_ITEM('number of annotations',COUNT_MEASURE(0.));
#20=VALUE_REPRESENTATION_ITEM('number of views',COUNT_MEASURE(0.));
#21=SHAPE_REPRESENTATION_RELATIONSHIP('None',
'relationship between J1_MAIN_SHAFT-None and J1_MAIN_SHAFT-None',#34,#23);
#22=SHAPE_REPRESENTATION_RELATIONSHIP('None',
'relationship between J1_MAIN_SHAFT-None and J1_MAIN_SHAFT-None',#34,#12);
#23=ADVANCED_BREP_SHAPE_REPRESENTATION('J1_MAIN_SHAFT-None',(#41),#660);
#24=SHAPE_DEFINITION_REPRESENTATION(#25,#34);
#25=PRODUCT_DEFINITION_SHAPE('','',#26);
#26=PRODUCT_DEFINITION(' ','',#28,#27);
#27=PRODUCT_DEFINITION_CONTEXT('part definition',#33,'design');
#28=PRODUCT_DEFINITION_FORMATION_WITH_SPECIFIED_SOURCE(' ',' ',#30,
 .NOT_KNOWN.);
#29=PRODUCT_RELATED_PRODUCT_CATEGORY('part','',(#30));
#30=PRODUCT('J1_MAIN_SHAFT','J1_MAIN_SHAFT',' ',(#31));
#31=PRODUCT_CONTEXT(' ',#33,'mechanical');
#32=APPLICATION_PROTOCOL_DEFINITION('international standard',
'automotive_design',2010,#33);
#33=APPLICATION_CONTEXT(
'core data for automotive mechanical design processes');
#34=SHAPE_REPRESENTATION('J1_MAIN_SHAFT-None',(#391),#660);
#35=GEOMETRIC_CURVE_SET('None',(#569,#345));
#36=SURFACE_STYLE_USAGE(.BOTH.,#37);
#37=SURFACE_SIDE_STYLE('',(#38));
#38=SURFACE_STYLE_FILL_AREA(#39);
#39=FILL_AREA_STYLE('',(#40));
#40=FILL_AREA_STYLE_COLOUR('',#390);
#41=MANIFOLD_SOLID_BREP('',#42);
#42=CLOSED_SHELL('',(#64,#65,#66,#67,#68,#69,#70,#71,#72,#73,#74,#75,#76,
#77,#78,#79,#80,#81,#82,#83,#84,#85,#86,#87,#88));
#43=FACE_OUTER_BOUND('',#210,.T.);
#44=FACE_OUTER_BOUND('',#213,.T.);
#45=FACE_OUTER_BOUND('',#216,.T.);
#46=CONICAL_SURFACE('',#436,6.00000000000001,45.);
#47=CONICAL_SURFACE('',#437,11.85,45.);
#48=CONICAL_SURFACE('',#438,21.,45.);
#49=CONICAL_SURFACE('',#439,20.5,45.);
#50=CONICAL_SURFACE('',#440,6.00000000000001,45.);
#51=CYLINDRICAL_SURFACE('',#402,12.35);
#52=CYLINDRICAL_SURFACE('',#406,14.);
#53=CYLINDRICAL_SURFACE('',#417,21.);
#54=CYLINDRICAL_SURFACE('',#429,6.00000000000001);
#55=CYLINDRICAL_SURFACE('',#430,1.75);
#56=CYLINDRICAL_SURFACE('',#431,1.75);
#57=CYLINDRICAL_SURFACE('',#432,1.75);
#58=CYLINDRICAL_SURFACE('',#433,1.75);
#59=CYLINDRICAL_SURFACE('',#434,1.75);
#60=CYLINDRICAL_SURFACE('',#435,1.75);
#61=CYLINDRICAL_SURFACE('',#442,1.2);
#62=CYLINDRICAL_SURFACE('',#445,1.2);
#63=CYLINDRICAL_SURFACE('',#448,1.2);
#64=ADVANCED_FACE('',(#96,#97,#98,#99,#100),#89,.T.);
#65=ADVANCED_FACE('',(#101,#102),#51,.T.);
#66=ADVANCED_FACE('',(#103,#104),#90,.T.);
#67=ADVANCED_FACE('',(#105,#106),#52,.T.);
#68=ADVANCED_FACE('',(#107,#108,#109,#110,#111,#112,#113,#114),#91,.T.);
#69=ADVANCED_FACE('',(#115,#116),#53,.T.);
#70=ADVANCED_FACE('',(#117,#118,#119,#120,#121,#122,#123,#124),#92,.T.);
#71=ADVANCED_FACE('',(#125,#126),#54,.F.);
#72=ADVANCED_FACE('',(#127,#128),#55,.F.);
#73=ADVANCED_FACE('',(#129,#130),#56,.F.);
#74=ADVANCED_FACE('',(#131,#132),#57,.F.);
#75=ADVANCED_FACE('',(#133,#134),#58,.F.);
#76=ADVANCED_FACE('',(#135,#136),#59,.F.);
#77=ADVANCED_FACE('',(#137,#138),#60,.F.);
#78=ADVANCED_FACE('',(#139,#140),#46,.F.);
#79=ADVANCED_FACE('',(#141,#142),#47,.T.);
#80=ADVANCED_FACE('',(#143,#144),#48,.T.);
#81=ADVANCED_FACE('',(#145,#146),#49,.T.);
#82=ADVANCED_FACE('',(#147,#148),#50,.F.);
#83=ADVANCED_FACE('',(#149,#150),#61,.F.);
#84=ADVANCED_FACE('',(#43),#93,.F.);
#85=ADVANCED_FACE('',(#151,#152),#62,.F.);
#86=ADVANCED_FACE('',(#44),#94,.F.);
#87=ADVANCED_FACE('',(#153,#154),#63,.F.);
#88=ADVANCED_FACE('',(#45),#95,.F.);
#89=PLANE('',#399);
#90=PLANE('',#404);
#91=PLANE('',#414);
#92=PLANE('',#426);
#93=PLANE('',#443);
#94=PLANE('',#446);
#95=PLANE('',#449);
#96=FACE_BOUND('',#155,.T.);
#97=FACE_BOUND('',#156,.T.);
#98=FACE_BOUND('',#157,.T.);
#99=FACE_BOUND('',#158,.T.);
#100=FACE_BOUND('',#159,.T.);
#101=FACE_BOUND('',#160,.T.);
#102=FACE_BOUND('',#161,.T.);
#103=FACE_BOUND('',#162,.T.);
#104=FACE_BOUND('',#163,.T.);
#105=FACE_BOUND('',#164,.T.);
#106=FACE_BOUND('',#165,.T.);
#107=FACE_BOUND('',#166,.T.);
#108=FACE_BOUND('',#167,.T.);
#109=FACE_BOUND('',#168,.T.);
#110=FACE_BOUND('',#169,.T.);
#111=FACE_BOUND('',#170,.T.);
#112=FACE_BOUND('',#171,.T.);
#113=FACE_BOUND('',#172,.T.);
#114=FACE_BOUND('',#173,.T.);
#115=FACE_BOUND('',#174,.T.);
#116=FACE_BOUND('',#175,.T.);
#117=FACE_BOUND('',#176,.T.);
#118=FACE_BOUND('',#177,.T.);
#119=FACE_BOUND('',#178,.T.);
#120=FACE_BOUND('',#179,.T.);
#121=FACE_BOUND('',#180,.T.);
#122=FACE_BOUND('',#181,.T.);
#123=FACE_BOUND('',#182,.T.);
#124=FACE_BOUND('',#183,.T.);
#125=FACE_BOUND('',#184,.T.);
#126=FACE_BOUND('',#185,.T.);
#127=FACE_BOUND('',#186,.T.);
#128=FACE_BOUND('',#187,.T.);
#129=FACE_BOUND('',#188,.T.);
#130=FACE_BOUND('',#189,.T.);
#131=FACE_BOUND('',#190,.T.);
#132=FACE_BOUND('',#191,.T.);
#133=FACE_BOUND('',#192,.T.);
#134=FACE_BOUND('',#193,.T.);
#135=FACE_BOUND('',#194,.T.);
#136=FACE_BOUND('',#195,.T.);
#137=FACE_BOUND('',#196,.T.);
#138=FACE_BOUND('',#197,.T.);
#139=FACE_BOUND('',#198,.T.);
#140=FACE_BOUND('',#199,.T.);
#141=FACE_BOUND('',#200,.T.);
#142=FACE_BOUND('',#201,.T.);
#143=FACE_BOUND('',#202,.T.);
#144=FACE_BOUND('',#203,.T.);
#145=FACE_BOUND('',#204,.T.);
#146=FACE_BOUND('',#205,.T.);
#147=FACE_BOUND('',#206,.T.);
#148=FACE_BOUND('',#207,.T.);
#149=FACE_BOUND('',#208,.T.);
#150=FACE_BOUND('',#209,.T.);
#151=FACE_BOUND('',#211,.T.);
#152=FACE_BOUND('',#212,.T.);
#153=FACE_BOUND('',#214,.T.);
#154=FACE_BOUND('',#215,.T.);
#155=EDGE_LOOP('',(#217));
#156=EDGE_LOOP('',(#218));
#157=EDGE_LOOP('',(#219));
#158=EDGE_LOOP('',(#220));
#159=EDGE_LOOP('',(#221));
#160=EDGE_LOOP('',(#222));
#161=EDGE_LOOP('',(#223));
#162=EDGE_LOOP('',(#224));
#163=EDGE_LOOP('',(#225));
#164=EDGE_LOOP('',(#226));
#165=EDGE_LOOP('',(#227));
#166=EDGE_LOOP('',(#228));
#167=EDGE_LOOP('',(#229));
#168=EDGE_LOOP('',(#230));
#169=EDGE_LOOP('',(#231));
#170=EDGE_LOOP('',(#232));
#171=EDGE_LOOP('',(#233));
#172=EDGE_LOOP('',(#234));
#173=EDGE_LOOP('',(#235));
#174=EDGE_LOOP('',(#236));
#175=EDGE_LOOP('',(#237));
#176=EDGE_LOOP('',(#238));
#177=EDGE_LOOP('',(#239));
#178=EDGE_LOOP('',(#240));
#179=EDGE_LOOP('',(#241));
#180=EDGE_LOOP('',(#242));
#181=EDGE_LOOP('',(#243));
#182=EDGE_LOOP('',(#244));
#183=EDGE_LOOP('',(#245));
#184=EDGE_LOOP('',(#246));
#185=EDGE_LOOP('',(#247));
#186=EDGE_LOOP('',(#248));
#187=EDGE_LOOP('',(#249));
#188=EDGE_LOOP('',(#250));
#189=EDGE_LOOP('',(#251));
#190=EDGE_LOOP('',(#252));
#191=EDGE_LOOP('',(#253));
#192=EDGE_LOOP('',(#254));
#193=EDGE_LOOP('',(#255));
#194=EDGE_LOOP('',(#256));
#195=EDGE_LOOP('',(#257));
#196=EDGE_LOOP('',(#258));
#197=EDGE_LOOP('',(#259));
#198=EDGE_LOOP('',(#260));
#199=EDGE_LOOP('',(#261));
#200=EDGE_LOOP('',(#262));
#201=EDGE_LOOP('',(#263));
#202=EDGE_LOOP('',(#264));
#203=EDGE_LOOP('',(#265));
#204=EDGE_LOOP('',(#266));
#205=EDGE_LOOP('',(#267));
#206=EDGE_LOOP('',(#268));
#207=EDGE_LOOP('',(#269));
#208=EDGE_LOOP('',(#270));
#209=EDGE_LOOP('',(#271));
#210=EDGE_LOOP('',(#272));
#211=EDGE_LOOP('',(#273));
#212=EDGE_LOOP('',(#274));
#213=EDGE_LOOP('',(#275));
#214=EDGE_LOOP('',(#276));
#215=EDGE_LOOP('',(#277));
#216=EDGE_LOOP('',(#278));
#217=ORIENTED_EDGE('',*,*,#310,.T.);
#218=ORIENTED_EDGE('',*,*,#311,.T.);
#219=ORIENTED_EDGE('',*,*,#312,.T.);
#220=ORIENTED_EDGE('',*,*,#313,.T.);
#221=ORIENTED_EDGE('',*,*,#314,.T.);
#222=ORIENTED_EDGE('',*,*,#315,.T.);
#223=ORIENTED_EDGE('',*,*,#316,.T.);
#224=ORIENTED_EDGE('',*,*,#317,.T.);
#225=ORIENTED_EDGE('',*,*,#316,.F.);
#226=ORIENTED_EDGE('',*,*,#318,.T.);
#227=ORIENTED_EDGE('',*,*,#317,.F.);
#228=ORIENTED_EDGE('',*,*,#319,.T.);
#229=ORIENTED_EDGE('',*,*,#320,.T.);
#230=ORIENTED_EDGE('',*,*,#321,.T.);
#231=ORIENTED_EDGE('',*,*,#322,.T.);
#232=ORIENTED_EDGE('',*,*,#323,.T.);
#233=ORIENTED_EDGE('',*,*,#324,.T.);
#234=ORIENTED_EDGE('',*,*,#325,.T.);
#235=ORIENTED_EDGE('',*,*,#318,.F.);
#236=ORIENTED_EDGE('',*,*,#326,.T.);
#237=ORIENTED_EDGE('',*,*,#327,.T.);
#238=ORIENTED_EDGE('',*,*,#328,.T.);
#239=ORIENTED_EDGE('',*,*,#329,.T.);
#240=ORIENTED_EDGE('',*,*,#330,.T.);
#241=ORIENTED_EDGE('',*,*,#331,.T.);
#242=ORIENTED_EDGE('',*,*,#332,.T.);
#243=ORIENTED_EDGE('',*,*,#333,.T.);
#244=ORIENTED_EDGE('',*,*,#334,.T.);
#245=ORIENTED_EDGE('',*,*,#335,.T.);
#246=ORIENTED_EDGE('',*,*,#336,.T.);
#247=ORIENTED_EDGE('',*,*,#337,.T.);
#248=ORIENTED_EDGE('',*,*,#325,.F.);
#249=ORIENTED_EDGE('',*,*,#335,.F.);
#250=ORIENTED_EDGE('',*,*,#324,.F.);
#251=ORIENTED_EDGE('',*,*,#334,.F.);
#252=ORIENTED_EDGE('',*,*,#323,.F.);
#253=ORIENTED_EDGE('',*,*,#333,.F.);
#254=ORIENTED_EDGE('',*,*,#322,.F.);
#255=ORIENTED_EDGE('',*,*,#332,.F.);
#256=ORIENTED_EDGE('',*,*,#321,.F.);
#257=ORIENTED_EDGE('',*,*,#331,.F.);
#258=ORIENTED_EDGE('',*,*,#320,.F.);
#259=ORIENTED_EDGE('',*,*,#330,.F.);
#260=ORIENTED_EDGE('',*,*,#329,.F.);
#261=ORIENTED_EDGE('',*,*,#337,.F.);
#262=ORIENTED_EDGE('',*,*,#315,.F.);
#263=ORIENTED_EDGE('',*,*,#314,.F.);
#264=ORIENTED_EDGE('',*,*,#328,.F.);
#265=ORIENTED_EDGE('',*,*,#327,.F.);
#266=ORIENTED_EDGE('',*,*,#326,.F.);
#267=ORIENTED_EDGE('',*,*,#319,.F.);
#268=ORIENTED_EDGE('',*,*,#313,.F.);
#269=ORIENTED_EDGE('',*,*,#336,.F.);
#270=ORIENTED_EDGE('',*,*,#312,.F.);
#271=ORIENTED_EDGE('',*,*,#338,.F.);
#272=ORIENTED_EDGE('',*,*,#338,.T.);
#273=ORIENTED_EDGE('',*,*,#311,.F.);
#274=ORIENTED_EDGE('',*,*,#339,.F.);
#275=ORIENTED_EDGE('',*,*,#339,.T.);
#276=ORIENTED_EDGE('',*,*,#310,.F.);
#277=ORIENTED_EDGE('',*,*,#340,.F.);
#278=ORIENTED_EDGE('',*,*,#340,.T.);
#279=VERTEX_POINT('',#573);
#280=VERTEX_POINT('',#575);
#281=VERTEX_POINT('',#577);
#282=VERTEX_POINT('',#579);
#283=VERTEX_POINT('',#581);
#284=VERTEX_POINT('',#584);
#285=VERTEX_POINT('',#586);
#286=VERTEX_POINT('',#589);
#287=VERTEX_POINT('',#592);
#288=VERTEX_POINT('',#595);
#289=VERTEX_POINT('',#597);
#290=VERTEX_POINT('',#599);
#291=VERTEX_POINT('',#601);
#292=VERTEX_POINT('',#603);
#293=VERTEX_POINT('',#605);
#294=VERTEX_POINT('',#607);
#295=VERTEX_POINT('',#610);
#296=VERTEX_POINT('',#612);
#297=VERTEX_POINT('',#615);
#298=VERTEX_POINT('',#617);
#299=VERTEX_POINT('',#619);
#300=VERTEX_POINT('',#621);
#301=VERTEX_POINT('',#623);
#302=VERTEX_POINT('',#625);
#303=VERTEX_POINT('',#627);
#304=VERTEX_POINT('',#629);
#305=VERTEX_POINT('',#632);
#306=VERTEX_POINT('',#634);
#307=VERTEX_POINT('',#648);
#308=VERTEX_POINT('',#652);
#309=VERTEX_POINT('',#656);
#310=EDGE_CURVE('',#279,#279,#346,.T.);
#311=EDGE_CURVE('',#280,#280,#347,.T.);
#312=EDGE_CURVE('',#281,#281,#348,.T.);
#313=EDGE_CURVE('',#282,#282,#349,.T.);
#314=EDGE_CURVE('',#283,#283,#350,.T.);
#315=EDGE_CURVE('',#284,#284,#351,.T.);
#316=EDGE_CURVE('',#285,#285,#352,.T.);
#317=EDGE_CURVE('',#286,#286,#353,.T.);
#318=EDGE_CURVE('',#287,#287,#354,.T.);
#319=EDGE_CURVE('',#288,#288,#355,.T.);
#320=EDGE_CURVE('',#289,#289,#356,.T.);
#321=EDGE_CURVE('',#290,#290,#357,.T.);
#322=EDGE_CURVE('',#291,#291,#358,.T.);
#323=EDGE_CURVE('',#292,#292,#359,.T.);
#324=EDGE_CURVE('',#293,#293,#360,.T.);
#325=EDGE_CURVE('',#294,#294,#361,.T.);
#326=EDGE_CURVE('',#295,#295,#362,.T.);
#327=EDGE_CURVE('',#296,#296,#363,.T.);
#328=EDGE_CURVE('',#297,#297,#364,.T.);
#329=EDGE_CURVE('',#298,#298,#365,.T.);
#330=EDGE_CURVE('',#299,#299,#366,.T.);
#331=EDGE_CURVE('',#300,#300,#367,.T.);
#332=EDGE_CURVE('',#301,#301,#368,.T.);
#333=EDGE_CURVE('',#302,#302,#369,.T.);
#334=EDGE_CURVE('',#303,#303,#370,.T.);
#335=EDGE_CURVE('',#304,#304,#371,.T.);
#336=EDGE_CURVE('',#305,#305,#372,.T.);
#337=EDGE_CURVE('',#306,#306,#373,.T.);
#338=EDGE_CURVE('',#307,#307,#374,.T.);
#339=EDGE_CURVE('',#308,#308,#375,.T.);
#340=EDGE_CURVE('',#309,#309,#376,.T.);
#341=CURVE_STYLE('',#343,POSITIVE_LENGTH_MEASURE(0.18),#389);
#342=CURVE_STYLE('',#344,POSITIVE_LENGTH_MEASURE(0.18),#388);
#343=DRAUGHTING_PRE_DEFINED_CURVE_FONT('continuous');
#344=DRAUGHTING_PRE_DEFINED_CURVE_FONT('continuous');
#345=CIRCLE('Arc5',#392,1.2);
#346=CIRCLE('',#394,1.2);
#347=CIRCLE('',#395,1.2);
#348=CIRCLE('',#396,1.2);
#349=CIRCLE('',#397,6.50000000000001);
#350=CIRCLE('',#398,11.85);
#351=CIRCLE('',#400,12.35);
#352=CIRCLE('',#401,12.35);
#353=CIRCLE('',#403,14.);
#354=CIRCLE('',#405,14.);
#355=CIRCLE('',#407,20.5);
#356=CIRCLE('',#408,1.75);
#357=CIRCLE('',#409,1.75);
#358=CIRCLE('',#410,1.75);
#359=CIRCLE('',#411,1.75);
#360=CIRCLE('',#412,1.75);
#361=CIRCLE('',#413,1.75);
#362=CIRCLE('',#415,21.);
#363=CIRCLE('',#416,21.);
#364=CIRCLE('',#418,20.5);
#365=CIRCLE('',#419,6.50000000000001);
#366=CIRCLE('',#420,1.75);
#367=CIRCLE('',#421,1.75);
#368=CIRCLE('',#422,1.75);
#369=CIRCLE('',#423,1.75);
#370=CIRCLE('',#424,1.75);
#371=CIRCLE('',#425,1.75);
#372=CIRCLE('',#427,6.00000000000001);
#373=CIRCLE('',#428,6.00000000000001);
#374=CIRCLE('',#441,1.2);
#375=CIRCLE('',#444,1.2);
#376=CIRCLE('',#447,1.2);
#377=PRESENTATION_LAYER_ASSIGNMENT('1','Layer 1',(#569,#345,#393,#41));
#378=STYLED_ITEM('',(#382),#569);
#379=STYLED_ITEM('',(#383),#345);
#380=STYLED_ITEM('',(#384),#393);
#381=STYLED_ITEM('',(#385),#41);
#382=PRESENTATION_STYLE_ASSIGNMENT((#386));
#383=PRESENTATION_STYLE_ASSIGNMENT((#341));
#384=PRESENTATION_STYLE_ASSIGNMENT((#342));
#385=PRESENTATION_STYLE_ASSIGNMENT((#36));
#386=POINT_STYLE('',#387,POSITIVE_LENGTH_MEASURE(3.),#388);
#387=PRE_DEFINED_POINT_MARKER_SYMBOL('plus');
#388=COLOUR_RGB('Light Weak Red',0.8,0.6,0.6);
#389=COLOUR_RGB('Dark Hard Blue',0.,0.,0.8);
#390=COLOUR_RGB('Light Orange Red',1.,0.6,0.4);
#391=AXIS2_PLACEMENT_3D('',#568,#450,#451);
#392=AXIS2_PLACEMENT_3D('',#570,#452,#453);
#393=AXIS2_PLACEMENT_3D('',#571,#454,#455);
#394=AXIS2_PLACEMENT_3D('',#572,#456,#457);
#395=AXIS2_PLACEMENT_3D('',#574,#458,#459);
#396=AXIS2_PLACEMENT_3D('',#576,#460,#461);
#397=AXIS2_PLACEMENT_3D('',#578,#462,#463);
#398=AXIS2_PLACEMENT_3D('',#580,#464,#465);
#399=AXIS2_PLACEMENT_3D('',#582,#466,#467);
#400=AXIS2_PLACEMENT_3D('',#583,#468,#469);
#401=AXIS2_PLACEMENT_3D('',#585,#470,#471);
#402=AXIS2_PLACEMENT_3D('',#587,#472,#473);
#403=AXIS2_PLACEMENT_3D('',#588,#474,#475);
#404=AXIS2_PLACEMENT_3D('',#590,#476,#477);
#405=AXIS2_PLACEMENT_3D('',#591,#478,#479);
#406=AXIS2_PLACEMENT_3D('',#593,#480,#481);
#407=AXIS2_PLACEMENT_3D('',#594,#482,#483);
#408=AXIS2_PLACEMENT_3D('',#596,#484,#485);
#409=AXIS2_PLACEMENT_3D('',#598,#486,#487);
#410=AXIS2_PLACEMENT_3D('',#600,#488,#489);
#411=AXIS2_PLACEMENT_3D('',#602,#490,#491);
#412=AXIS2_PLACEMENT_3D('',#604,#492,#493);
#413=AXIS2_PLACEMENT_3D('',#606,#494,#495);
#414=AXIS2_PLACEMENT_3D('',#608,#496,#497);
#415=AXIS2_PLACEMENT_3D('',#609,#498,#499);
#416=AXIS2_PLACEMENT_3D('',#611,#500,#501);
#417=AXIS2_PLACEMENT_3D('',#613,#502,#503);
#418=AXIS2_PLACEMENT_3D('',#614,#504,#505);
#419=AXIS2_PLACEMENT_3D('',#616,#506,#507);
#420=AXIS2_PLACEMENT_3D('',#618,#508,#509);
#421=AXIS2_PLACEMENT_3D('',#620,#510,#511);
#422=AXIS2_PLACEMENT_3D('',#622,#512,#513);
#423=AXIS2_PLACEMENT_3D('',#624,#514,#515);
#424=AXIS2_PLACEMENT_3D('',#626,#516,#517);
#425=AXIS2_PLACEMENT_3D('',#628,#518,#519);
#426=AXIS2_PLACEMENT_3D('',#630,#520,#521);
#427=AXIS2_PLACEMENT_3D('',#631,#522,#523);
#428=AXIS2_PLACEMENT_3D('',#633,#524,#525);
#429=AXIS2_PLACEMENT_3D('',#635,#526,#527);
#430=AXIS2_PLACEMENT_3D('',#636,#528,#529);
#431=AXIS2_PLACEMENT_3D('',#637,#530,#531);
#432=AXIS2_PLACEMENT_3D('',#638,#532,#533);
#433=AXIS2_PLACEMENT_3D('',#639,#534,#535);
#434=AXIS2_PLACEMENT_3D('',#640,#536,#537);
#435=AXIS2_PLACEMENT_3D('',#641,#538,#539);
#436=AXIS2_PLACEMENT_3D('',#642,#540,#541);
#437=AXIS2_PLACEMENT_3D('',#643,#542,#543);
#438=AXIS2_PLACEMENT_3D('',#644,#544,#545);
#439=AXIS2_PLACEMENT_3D('',#645,#546,#547);
#440=AXIS2_PLACEMENT_3D('',#646,#548,#549);
#441=AXIS2_PLACEMENT_3D('',#647,#550,#551);
#442=AXIS2_PLACEMENT_3D('',#649,#552,#553);
#443=AXIS2_PLACEMENT_3D('',#650,#554,#555);
#444=AXIS2_PLACEMENT_3D('',#651,#556,#557);
#445=AXIS2_PLACEMENT_3D('',#653,#558,#559);
#446=AXIS2_PLACEMENT_3D('',#654,#560,#561);
#447=AXIS2_PLACEMENT_3D('',#655,#562,#563);
#448=AXIS2_PLACEMENT_3D('',#657,#564,#565);
#449=AXIS2_PLACEMENT_3D('',#658,#566,#567);
#450=DIRECTION('',(0.,0.,1.));
#451=DIRECTION('',(1.,0.,0.));
#452=DIRECTION('',(9.94056667387886E-17,1.,3.4498049472978E-16));
#453=DIRECTION('',(1.,-9.94056667387885E-17,-1.66533453693773E-16));
#454=DIRECTION('',(0.,0.,1.));
#455=DIRECTION('',(1.,0.,0.));
#456=DIRECTION('',(0.,1.,0.));
#457=DIRECTION('',(0.,0.,-1.));
#458=DIRECTION('',(0.,1.,0.));
#459=DIRECTION('',(0.,0.,-1.));
#460=DIRECTION('',(0.,1.,0.));
#461=DIRECTION('',(0.,0.,-1.));
#462=DIRECTION('',(0.,1.,0.));
#463=DIRECTION('',(0.,0.,-1.));
#464=DIRECTION('',(0.,-1.,0.));
#465=DIRECTION('',(0.,0.,-1.));
#466=DIRECTION('',(0.,-1.,0.));
#467=DIRECTION('',(0.,0.,-1.));
#468=DIRECTION('',(0.,1.,0.));
#469=DIRECTION('',(0.,0.,-1.));
#470=DIRECTION('',(0.,-1.,0.));
#471=DIRECTION('',(0.,0.,-1.));
#472=DIRECTION('',(0.,-1.,0.));
#473=DIRECTION('',(0.,0.,-1.));
#474=DIRECTION('',(0.,-1.,0.));
#475=DIRECTION('',(0.,0.,-1.));
#476=DIRECTION('',(0.,-1.,0.));
#477=DIRECTION('',(0.,0.,-1.));
#478=DIRECTION('',(0.,-1.,0.));
#479=DIRECTION('',(0.,0.,-1.));
#480=DIRECTION('',(0.,-1.,0.));
#481=DIRECTION('',(0.,0.,-1.));
#482=DIRECTION('',(0.,-1.,0.));
#483=DIRECTION('',(0.,0.,-1.));
#484=DIRECTION('',(0.,1.,0.));
#485=DIRECTION('',(0.,0.,-1.));
#486=DIRECTION('',(0.,1.,0.));
#487=DIRECTION('',(0.,0.,-1.));
#488=DIRECTION('',(0.,1.,0.));
#489=DIRECTION('',(0.,0.,-1.));
#490=DIRECTION('',(0.,1.,0.));
#491=DIRECTION('',(0.,0.,-1.));
#492=DIRECTION('',(0.,1.,0.));
#493=DIRECTION('',(0.,0.,-1.));
#494=DIRECTION('',(0.,1.,0.));
#495=DIRECTION('',(0.,0.,-1.));
#496=DIRECTION('',(0.,-1.,0.));
#497=DIRECTION('',(0.,0.,-1.));
#498=DIRECTION('',(0.,1.,0.));
#499=DIRECTION('',(0.,0.,-1.));
#500=DIRECTION('',(0.,-1.,0.));
#501=DIRECTION('',(0.,0.,1.));
#502=DIRECTION('',(0.,-1.,0.));
#503=DIRECTION('',(0.,0.,-1.));
#504=DIRECTION('',(0.,1.,0.));
#505=DIRECTION('',(0.,0.,1.));
#506=DIRECTION('',(0.,-1.,0.));
#507=DIRECTION('',(0.,0.,1.));
#508=DIRECTION('',(0.,-1.,0.));
#509=DIRECTION('',(0.,0.,1.));
#510=DIRECTION('',(0.,-1.,0.));
#511=DIRECTION('',(0.,0.,1.));
#512=DIRECTION('',(0.,-1.,0.));
#513=DIRECTION('',(0.,0.,1.));
#514=DIRECTION('',(0.,-1.,0.));
#515=DIRECTION('',(0.,0.,1.));
#516=DIRECTION('',(0.,-1.,0.));
#517=DIRECTION('',(0.,0.,1.));
#518=DIRECTION('',(0.,-1.,0.));
#519=DIRECTION('',(0.,0.,1.));
#520=DIRECTION('',(0.,1.,0.));
#521=DIRECTION('',(0.,0.,1.));
#522=DIRECTION('',(0.,-1.,0.));
#523=DIRECTION('',(0.,0.,-1.));
#524=DIRECTION('',(0.,1.,0.));
#525=DIRECTION('',(0.,0.,1.));
#526=DIRECTION('',(0.,-1.,0.));
#527=DIRECTION('',(0.,0.,-1.));
#528=DIRECTION('',(-9.94056667387886E-17,-1.,-3.4498049472978E-16));
#529=DIRECTION('',(0.,0.,-1.));
#530=DIRECTION('',(-3.48464705615507E-16,-1.,-8.64024146889693E-17));
#531=DIRECTION('',(1.,0.,0.));
#532=DIRECTION('',(-2.49059038876719E-16,-1.,2.5857808004081E-16));
#533=DIRECTION('',(0.,0.,-1.));
#534=DIRECTION('',(0.,-1.,0.));
#535=DIRECTION('',(0.,0.,-1.));
#536=DIRECTION('',(3.48464705615507E-16,-1.,8.64024146889701E-17));
#537=DIRECTION('',(1.,0.,0.));
#538=DIRECTION('',(2.4905903887672E-16,-1.,-2.58578080040809E-16));
#539=DIRECTION('',(0.,0.,-1.));
#540=DIRECTION('',(0.,1.,0.));
#541=DIRECTION('',(0.,6.55263340826229E-17,1.));
#542=DIRECTION('',(0.,1.,0.));
#543=DIRECTION('',(0.,3.0859339395743E-17,1.));
#544=DIRECTION('',(0.,-1.,0.));
#545=DIRECTION('',(0.,-4.41751325909863E-17,-1.));
#546=DIRECTION('',(0.,1.,0.));
#547=DIRECTION('',(0.,5.9495660616549E-17,1.));
#548=DIRECTION('',(0.,-1.,0.));
#549=DIRECTION('',(0.,-2.41412809778084E-17,-1.));
#550=DIRECTION('',(-9.94056667387885E-17,-1.,-3.4498049472978E-16));
#551=DIRECTION('',(1.,0.,6.12323399573677E-17));
#552=DIRECTION('',(-9.94056667387886E-17,-1.,-3.4498049472978E-16));
#553=DIRECTION('',(0.,0.,-1.));
#554=DIRECTION('',(9.94056667387885E-17,1.,3.4498049472978E-16));
#555=DIRECTION('',(0.,-3.45209971719385E-16,1.));
#556=DIRECTION('',(-2.49059038876719E-16,-1.,2.5857808004081E-16));
#557=DIRECTION('',(-0.499999999999999,0.,-0.866025403784439));
#558=DIRECTION('',(-2.49059038876719E-16,-1.,2.5857808004081E-16));
#559=DIRECTION('',(0.,0.,-1.));
#560=DIRECTION('',(2.49059038876719E-16,1.,-2.5857808004081E-16));
#561=DIRECTION('',(0.,2.58473797920544E-16,1.));
#562=DIRECTION('',(3.48464705615507E-16,-1.,8.64024146889702E-17));
#563=DIRECTION('',(-0.500000000000002,0.,0.866025403784437));
#564=DIRECTION('',(3.48464705615507E-16,-1.,8.64024146889701E-17));
#565=DIRECTION('',(1.,0.,0.));
#566=DIRECTION('',(-3.48464705615507E-16,1.,-8.64024146889702E-17));
#567=DIRECTION('',(-1.,-3.48679418671338E-16,0.));
#568=CARTESIAN_POINT('',(0.,0.,0.));
#569=CARTESIAN_POINT('',(0.,0.,0.));
#570=CARTESIAN_POINT('',(-9.5,-1.05498578980631E-17,6.50073045538399E-32));
#571=CARTESIAN_POINT('',(0.,0.,0.));
#572=CARTESIAN_POINT('',(4.75000000000003,-28.5,-8.22724133595215));
#573=CARTESIAN_POINT('',(4.75000000000003,-28.5,-9.42724133595215));
#574=CARTESIAN_POINT('',(4.74999999999998,-28.5,8.22724133595218));
#575=CARTESIAN_POINT('',(4.74999999999998,-28.5,7.02724133595218));
#576=CARTESIAN_POINT('',(-9.5,-28.5,-9.83194409979872E-15));
#577=CARTESIAN_POINT('',(-9.5,-28.5,-1.20000000000001));
#578=CARTESIAN_POINT('',(0.,-28.5,0.));
#579=CARTESIAN_POINT('',(0.,-28.5,-6.50000000000001));
#580=CARTESIAN_POINT('',(0.,-28.5,0.));
#581=CARTESIAN_POINT('',(0.,-28.5,-11.85));
#582=CARTESIAN_POINT('',(0.,-28.5,0.));
#583=CARTESIAN_POINT('',(0.,-28.,0.));
#584=CARTESIAN_POINT('',(0.,-28.,-12.35));
#585=CARTESIAN_POINT('',(0.,0.,0.));
#586=CARTESIAN_POINT('',(0.,0.,-12.35));
#587=CARTESIAN_POINT('',(0.,0.,0.));
#588=CARTESIAN_POINT('',(0.,1.83697019872103E-16,0.));
#589=CARTESIAN_POINT('',(0.,1.83697019872103E-16,-14.));
#590=CARTESIAN_POINT('',(0.,9.18485099360513E-17,-12.35));
#591=CARTESIAN_POINT('',(0.,5.5,0.));
#592=CARTESIAN_POINT('',(0.,5.5,-14.));
#593=CARTESIAN_POINT('',(0.,0.,0.));
#594=CARTESIAN_POINT('',(0.,5.5,0.));
#595=CARTESIAN_POINT('',(0.,5.5,-20.5));
#596=CARTESIAN_POINT('',(-8.74999999999994,5.5,-15.1554445662277));
#597=CARTESIAN_POINT('',(-8.74999999999994,5.5,-16.9054445662277));
#598=CARTESIAN_POINT('',(8.75000000000004,5.5,-15.1554445662276));
#599=CARTESIAN_POINT('',(8.75000000000004,5.5,-16.9054445662277));
#600=CARTESIAN_POINT('',(17.5,5.5,3.46944695195361E-15));
#601=CARTESIAN_POINT('',(17.5,5.5,-1.75));
#602=CARTESIAN_POINT('',(8.74999999999998,5.5,15.1554445662277));
#603=CARTESIAN_POINT('',(8.74999999999998,5.5,13.4054445662277));
#604=CARTESIAN_POINT('',(-8.75000000000001,5.5,15.1554445662277));
#605=CARTESIAN_POINT('',(-8.75000000000001,5.5,13.4054445662277));
#606=CARTESIAN_POINT('',(-17.5,5.5,1.89739272101379E-15));
#607=CARTESIAN_POINT('',(-17.5,5.5,-1.75));
#608=CARTESIAN_POINT('',(0.,5.5,-14.));
#609=CARTESIAN_POINT('',(0.,6.,0.));
#610=CARTESIAN_POINT('',(0.,6.,-21.));
#611=CARTESIAN_POINT('',(0.,11.5,0.));
#612=CARTESIAN_POINT('',(0.,11.5,21.));
#613=CARTESIAN_POINT('',(0.,0.,0.));
#614=CARTESIAN_POINT('',(0.,12.,0.));
#615=CARTESIAN_POINT('',(0.,12.,20.5));
#616=CARTESIAN_POINT('',(0.,12.,0.));
#617=CARTESIAN_POINT('',(0.,12.,6.50000000000001));
#618=CARTESIAN_POINT('',(-8.74999999999994,12.,-15.1554445662277));
#619=CARTESIAN_POINT('',(-8.74999999999994,12.,-13.4054445662277));
#620=CARTESIAN_POINT('',(8.75000000000004,12.,-15.1554445662277));
#621=CARTESIAN_POINT('',(8.75000000000004,12.,-13.4054445662277));
#622=CARTESIAN_POINT('',(17.5,12.,3.46944695195361E-15));
#623=CARTESIAN_POINT('',(17.5,12.,1.75));
#624=CARTESIAN_POINT('',(8.74999999999998,12.,15.1554445662277));
#625=CARTESIAN_POINT('',(8.74999999999998,12.,16.9054445662277));
#626=CARTESIAN_POINT('',(-8.75000000000001,12.,15.1554445662277));
#627=CARTESIAN_POINT('',(-8.75000000000001,12.,16.9054445662277));
#628=CARTESIAN_POINT('',(-17.5,12.,4.13976593675735E-15));
#629=CARTESIAN_POINT('',(-17.5,12.,1.75));
#630=CARTESIAN_POINT('',(0.,12.,-21.));
#631=CARTESIAN_POINT('',(0.,-28.,0.));
#632=CARTESIAN_POINT('',(0.,-28.,-6.00000000000001));
#633=CARTESIAN_POINT('',(0.,11.5,0.));
#634=CARTESIAN_POINT('',(0.,11.5,6.00000000000001));
#635=CARTESIAN_POINT('',(0.,0.,0.));
#636=CARTESIAN_POINT('',(-17.5,17.5,6.03715865777114E-15));
#637=CARTESIAN_POINT('',(-8.75000000000001,17.5,15.1554445662277));
#638=CARTESIAN_POINT('',(8.74999999999998,17.5,15.1554445662277));
#639=CARTESIAN_POINT('',(17.5,17.5,3.46944695195361E-15));
#640=CARTESIAN_POINT('',(8.75000000000004,17.5,-15.1554445662277));
#641=CARTESIAN_POINT('',(-8.74999999999994,17.5,-15.1554445662277));
#642=CARTESIAN_POINT('',(0.,11.5,0.));
#643=CARTESIAN_POINT('',(0.,-28.5,0.));
#644=CARTESIAN_POINT('',(0.,11.5,0.));
#645=CARTESIAN_POINT('',(0.,5.5,0.));
#646=CARTESIAN_POINT('',(0.,-28.,0.));
#647=CARTESIAN_POINT('',(-9.5,-15.,-5.17470742094669E-15));
#648=CARTESIAN_POINT('',(-8.3,-15.,-5.10122861299785E-15));
#649=CARTESIAN_POINT('',(-9.5,-15.,-5.17470742094669E-15));
#650=CARTESIAN_POINT('',(-9.5,-15.,-5.17470742094669E-15));
#651=CARTESIAN_POINT('',(4.74999999999998,-15.,8.22724133595218));
#652=CARTESIAN_POINT('',(4.14999999999998,-15.,7.18801085141085));
#653=CARTESIAN_POINT('',(4.74999999999998,-15.,8.22724133595218));
#654=CARTESIAN_POINT('',(4.74999999999998,-15.,8.22724133595218));
#655=CARTESIAN_POINT('',(4.75000000000003,-15.,-8.22724133595216));
#656=CARTESIAN_POINT('',(4.15000000000003,-15.,-7.18801085141083));
#657=CARTESIAN_POINT('',(4.75000000000003,-15.,-8.22724133595216));
#658=CARTESIAN_POINT('',(4.75000000000003,-15.,-8.22724133595216));
#659=MECHANICAL_DESIGN_GEOMETRIC_PRESENTATION_REPRESENTATION('',(#378,#379,
#380,#381),#660);
#660=(
GEOMETRIC_REPRESENTATION_CONTEXT(3)
GLOBAL_UNCERTAINTY_ASSIGNED_CONTEXT((#661))
GLOBAL_UNIT_ASSIGNED_CONTEXT((#667,#663,#662))
REPRESENTATION_CONTEXT('J1_MAIN_SHAFT','TOP_LEVEL_ASSEMBLY_PART')
);
#661=UNCERTAINTY_MEASURE_WITH_UNIT(LENGTH_MEASURE(2.E-5),#667,
'DISTANCE_ACCURACY_VALUE','Maximum Tolerance applied to model');
#662=(
NAMED_UNIT(*)
SI_UNIT($,.STERADIAN.)
SOLID_ANGLE_UNIT()
);
#663=(
CONVERSION_BASED_UNIT('DEGREE',#665)
NAMED_UNIT(#664)
PLANE_ANGLE_UNIT()
);
#664=DIMENSIONAL_EXPONENTS(0.,0.,0.,0.,0.,0.,0.);
#665=PLANE_ANGLE_MEASURE_WITH_UNIT(PLANE_ANGLE_MEASURE(0.0174532925),#666);
#666=(
NAMED_UNIT(*)
PLANE_ANGLE_UNIT()
SI_UNIT($,.RADIAN.)
);
#667=(
LENGTH_UNIT()
NAMED_UNIT(*)
SI_UNIT(.MILLI.,.METRE.)
);
ENDSEC;
END-ISO-10303-21;
