ISO-10303-21;
HEADER;
/* Generated by software containing ST-Developer
 * from STEP Tools, Inc. (www.steptools.com) 
 */
/* OPTION: using custom schema-name function */

FILE_DESCRIPTION(
/* description */ (''),
/* implementation_level */ '2;1');

FILE_NAME(
/* name */ 'J1_SHAFT.stp',
/* time_stamp */ '2022-07-20T21:20:20+09:00',
/* author */ (''),
/* organization */ (''),
/* preprocessor_version */ 'ST-DEVELOPER v16.7',
/* originating_system */ '',
/* authorisation */ '');

FILE_SCHEMA (('AUTOMOTIVE_DESIGN { 1 0 10303 214 3 1 1 1 }'));
ENDSEC;

DATA;
#10=CONSTRUCTIVE_GEOMETRY_REPRESENTATION_RELATIONSHIP(
'supplemental geometry','',#34,#11);
#11=CONSTRUCTIVE_GEOMETRY_REPRESENTATION('supplemental geometry',(#366),
#586);
#12=GEOMETRICALLY_BOUNDED_WIREFRAME_SHAPE_REPRESENTATION(
'J1_SHAFT-None',(#35),#586);
#13=PROPERTY_DEFINITION_REPRESENTATION(#17,#15);
#14=PROPERTY_DEFINITION_REPRESENTATION(#18,#16);
#15=REPRESENTATION('',(#19),#586);
#16=REPRESENTATION('',(#20),#586);
#17=PROPERTY_DEFINITION('pmi validation property','',#25);
#18=PROPERTY_DEFINITION('pmi validation property','',#25);
#19=VALUE_REPRESENTATION_ITEM('number of annotations',COUNT_MEASURE(0.));
#20=VALUE_REPRESENTATION_ITEM('number of views',COUNT_MEASURE(0.));
#21=SHAPE_REPRESENTATION_RELATIONSHIP('None',
'relationship between J1_SHAFT-None and J1_SHAFT-None',#34,#23);
#22=SHAPE_REPRESENTATION_RELATIONSHIP('None',
'relationship between J1_SHAFT-None and J1_SHAFT-None',#34,#12);
#23=ADVANCED_BREP_SHAPE_REPRESENTATION('J1_SHAFT-None',(#41),#586);
#24=SHAPE_DEFINITION_REPRESENTATION(#25,#34);
#25=PRODUCT_DEFINITION_SHAPE('','',#26);
#26=PRODUCT_DEFINITION(' ','',#28,#27);
#27=PRODUCT_DEFINITION_CONTEXT('part definition',#33,'design');
#28=PRODUCT_DEFINITION_FORMATION_WITH_SPECIFIED_SOURCE(' ',' ',#30,
 .NOT_KNOWN.);
#29=PRODUCT_RELATED_PRODUCT_CATEGORY('part','',(#30));
#30=PRODUCT('J1_SHAFT','J1_SHAFT',' ',(#31));
#31=PRODUCT_CONTEXT(' ',#33,'mechanical');
#32=APPLICATION_PROTOCOL_DEFINITION('international standard',
'automotive_design',2010,#33);
#33=APPLICATION_CONTEXT(
'core data for automotive mechanical design processes');
#34=SHAPE_REPRESENTATION('J1_SHAFT-None',(#364),#586);
#35=GEOMETRIC_CURVE_SET('None',(#500,#333));
#36=SURFACE_STYLE_USAGE(.BOTH.,#37);
#37=SURFACE_SIDE_STYLE('',(#38));
#38=SURFACE_STYLE_FILL_AREA(#39);
#39=FILL_AREA_STYLE('',(#40));
#40=FILL_AREA_STYLE_COLOUR('',#363);
#41=MANIFOLD_SOLID_BREP('',#42);
#42=CLOSED_SHELL('',(#58,#59,#60,#61,#62,#63,#64,#65,#66,#67,#68,#69,#70,
#71,#72,#73,#74,#75,#76,#77));
#43=FACE_OUTER_BOUND('',#191,.T.);
#44=FACE_OUTER_BOUND('',#192,.T.);
#45=FACE_OUTER_BOUND('',#193,.T.);
#46=FACE_OUTER_BOUND('',#194,.T.);
#47=FACE_OUTER_BOUND('',#195,.T.);
#48=FACE_OUTER_BOUND('',#196,.T.);
#49=CONICAL_SURFACE('',#385,14.,44.9999999999998);
#50=CONICAL_SURFACE('',#389,12.35,45.);
#51=CYLINDRICAL_SURFACE('',#380,12.35);
#52=CYLINDRICAL_SURFACE('',#384,14.);
#53=CYLINDRICAL_SURFACE('',#386,1.2);
#54=CYLINDRICAL_SURFACE('',#387,1.2);
#55=CYLINDRICAL_SURFACE('',#388,1.2);
#56=CYLINDRICAL_SURFACE('',#392,1.75);
#57=CYLINDRICAL_SURFACE('',#395,3.75);
#58=ADVANCED_FACE('',(#125,#126,#127,#128,#129),#78,.F.);
#59=ADVANCED_FACE('',(#130,#131,#132,#133,#134),#79,.F.);
#60=ADVANCED_FACE('',(#135,#136),#51,.T.);
#61=ADVANCED_FACE('',(#137,#138),#80,.F.);
#62=ADVANCED_FACE('',(#139,#140),#52,.T.);
#63=ADVANCED_FACE('',(#141,#142),#49,.T.);
#64=ADVANCED_FACE('',(#143,#144),#53,.F.);
#65=ADVANCED_FACE('',(#145,#146),#54,.F.);
#66=ADVANCED_FACE('',(#147,#148),#55,.F.);
#67=ADVANCED_FACE('',(#149,#150),#50,.T.);
#68=ADVANCED_FACE('',(#151,#152),#56,.F.);
#69=ADVANCED_FACE('',(#153,#154),#81,.F.);
#70=ADVANCED_FACE('',(#155,#156),#57,.F.);
#71=ADVANCED_FACE('',(#43),#82,.T.);
#72=ADVANCED_FACE('',(#44),#83,.T.);
#73=ADVANCED_FACE('',(#45),#84,.T.);
#74=ADVANCED_FACE('',(#46),#85,.T.);
#75=ADVANCED_FACE('',(#47),#86,.T.);
#76=ADVANCED_FACE('',(#48),#87,.T.);
#77=ADVANCED_FACE('',(#157,#158),#88,.F.);
#78=PLANE('',#371);
#79=PLANE('',#377);
#80=PLANE('',#382);
#81=PLANE('',#394);
#82=PLANE('',#396);
#83=PLANE('',#397);
#84=PLANE('',#398);
#85=PLANE('',#399);
#86=PLANE('',#400);
#87=PLANE('',#401);
#88=PLANE('',#402);
#89=LINE('',#511,#107);
#90=LINE('',#514,#108);
#91=LINE('',#516,#109);
#92=LINE('',#518,#110);
#93=LINE('',#520,#111);
#94=LINE('',#522,#112);
#95=LINE('',#560,#113);
#96=LINE('',#562,#114);
#97=LINE('',#564,#115);
#98=LINE('',#566,#116);
#99=LINE('',#568,#117);
#100=LINE('',#570,#118);
#101=LINE('',#572,#119);
#102=LINE('',#574,#120);
#103=LINE('',#576,#121);
#104=LINE('',#578,#122);
#105=LINE('',#580,#123);
#106=LINE('',#582,#124);
#107=VECTOR('',#417,1.);
#108=VECTOR('',#418,1.);
#109=VECTOR('',#419,1.);
#110=VECTOR('',#420,1.);
#111=VECTOR('',#421,1.);
#112=VECTOR('',#422,1.);
#113=VECTOR('',#473,1.);
#114=VECTOR('',#474,1.);
#115=VECTOR('',#475,1.);
#116=VECTOR('',#478,1.);
#117=VECTOR('',#479,1.);
#118=VECTOR('',#482,1.);
#119=VECTOR('',#483,1.);
#120=VECTOR('',#486,1.);
#121=VECTOR('',#487,1.);
#122=VECTOR('',#490,1.);
#123=VECTOR('',#491,1.);
#124=VECTOR('',#494,1.);
#125=FACE_BOUND('',#159,.T.);
#126=FACE_BOUND('',#160,.T.);
#127=FACE_BOUND('',#161,.T.);
#128=FACE_BOUND('',#162,.T.);
#129=FACE_BOUND('',#163,.T.);
#130=FACE_BOUND('',#164,.T.);
#131=FACE_BOUND('',#165,.T.);
#132=FACE_BOUND('',#166,.T.);
#133=FACE_BOUND('',#167,.T.);
#134=FACE_BOUND('',#168,.T.);
#135=FACE_BOUND('',#169,.T.);
#136=FACE_BOUND('',#170,.T.);
#137=FACE_BOUND('',#171,.T.);
#138=FACE_BOUND('',#172,.T.);
#139=FACE_BOUND('',#173,.T.);
#140=FACE_BOUND('',#174,.T.);
#141=FACE_BOUND('',#175,.T.);
#142=FACE_BOUND('',#176,.T.);
#143=FACE_BOUND('',#177,.T.);
#144=FACE_BOUND('',#178,.T.);
#145=FACE_BOUND('',#179,.T.);
#146=FACE_BOUND('',#180,.T.);
#147=FACE_BOUND('',#181,.T.);
#148=FACE_BOUND('',#182,.T.);
#149=FACE_BOUND('',#183,.T.);
#150=FACE_BOUND('',#184,.T.);
#151=FACE_BOUND('',#185,.T.);
#152=FACE_BOUND('',#186,.T.);
#153=FACE_BOUND('',#187,.T.);
#154=FACE_BOUND('',#188,.T.);
#155=FACE_BOUND('',#189,.T.);
#156=FACE_BOUND('',#190,.T.);
#157=FACE_BOUND('',#197,.T.);
#158=FACE_BOUND('',#198,.T.);
#159=EDGE_LOOP('',(#199));
#160=EDGE_LOOP('',(#200));
#161=EDGE_LOOP('',(#201));
#162=EDGE_LOOP('',(#202));
#163=EDGE_LOOP('',(#203,#204,#205,#206,#207,#208));
#164=EDGE_LOOP('',(#209));
#165=EDGE_LOOP('',(#210));
#166=EDGE_LOOP('',(#211));
#167=EDGE_LOOP('',(#212));
#168=EDGE_LOOP('',(#213));
#169=EDGE_LOOP('',(#214));
#170=EDGE_LOOP('',(#215));
#171=EDGE_LOOP('',(#216));
#172=EDGE_LOOP('',(#217));
#173=EDGE_LOOP('',(#218));
#174=EDGE_LOOP('',(#219));
#175=EDGE_LOOP('',(#220));
#176=EDGE_LOOP('',(#221));
#177=EDGE_LOOP('',(#222));
#178=EDGE_LOOP('',(#223));
#179=EDGE_LOOP('',(#224));
#180=EDGE_LOOP('',(#225));
#181=EDGE_LOOP('',(#226));
#182=EDGE_LOOP('',(#227));
#183=EDGE_LOOP('',(#228));
#184=EDGE_LOOP('',(#229));
#185=EDGE_LOOP('',(#230));
#186=EDGE_LOOP('',(#231));
#187=EDGE_LOOP('',(#232));
#188=EDGE_LOOP('',(#233));
#189=EDGE_LOOP('',(#234));
#190=EDGE_LOOP('',(#235));
#191=EDGE_LOOP('',(#236,#237,#238,#239));
#192=EDGE_LOOP('',(#240,#241,#242,#243));
#193=EDGE_LOOP('',(#244,#245,#246,#247));
#194=EDGE_LOOP('',(#248,#249,#250,#251));
#195=EDGE_LOOP('',(#252,#253,#254,#255));
#196=EDGE_LOOP('',(#256,#257,#258,#259));
#197=EDGE_LOOP('',(#260,#261,#262,#263,#264,#265));
#198=EDGE_LOOP('',(#266));
#199=ORIENTED_EDGE('',*,*,#295,.T.);
#200=ORIENTED_EDGE('',*,*,#296,.F.);
#201=ORIENTED_EDGE('',*,*,#297,.F.);
#202=ORIENTED_EDGE('',*,*,#298,.F.);
#203=ORIENTED_EDGE('',*,*,#299,.F.);
#204=ORIENTED_EDGE('',*,*,#300,.F.);
#205=ORIENTED_EDGE('',*,*,#301,.F.);
#206=ORIENTED_EDGE('',*,*,#302,.F.);
#207=ORIENTED_EDGE('',*,*,#303,.F.);
#208=ORIENTED_EDGE('',*,*,#304,.F.);
#209=ORIENTED_EDGE('',*,*,#305,.T.);
#210=ORIENTED_EDGE('',*,*,#306,.T.);
#211=ORIENTED_EDGE('',*,*,#307,.F.);
#212=ORIENTED_EDGE('',*,*,#308,.F.);
#213=ORIENTED_EDGE('',*,*,#309,.F.);
#214=ORIENTED_EDGE('',*,*,#310,.T.);
#215=ORIENTED_EDGE('',*,*,#311,.F.);
#216=ORIENTED_EDGE('',*,*,#312,.F.);
#217=ORIENTED_EDGE('',*,*,#311,.T.);
#218=ORIENTED_EDGE('',*,*,#313,.F.);
#219=ORIENTED_EDGE('',*,*,#312,.T.);
#220=ORIENTED_EDGE('',*,*,#295,.F.);
#221=ORIENTED_EDGE('',*,*,#313,.T.);
#222=ORIENTED_EDGE('',*,*,#296,.T.);
#223=ORIENTED_EDGE('',*,*,#309,.T.);
#224=ORIENTED_EDGE('',*,*,#297,.T.);
#225=ORIENTED_EDGE('',*,*,#308,.T.);
#226=ORIENTED_EDGE('',*,*,#298,.T.);
#227=ORIENTED_EDGE('',*,*,#307,.T.);
#228=ORIENTED_EDGE('',*,*,#306,.F.);
#229=ORIENTED_EDGE('',*,*,#310,.F.);
#230=ORIENTED_EDGE('',*,*,#314,.T.);
#231=ORIENTED_EDGE('',*,*,#315,.T.);
#232=ORIENTED_EDGE('',*,*,#315,.F.);
#233=ORIENTED_EDGE('',*,*,#316,.T.);
#234=ORIENTED_EDGE('',*,*,#316,.F.);
#235=ORIENTED_EDGE('',*,*,#305,.F.);
#236=ORIENTED_EDGE('',*,*,#299,.T.);
#237=ORIENTED_EDGE('',*,*,#317,.T.);
#238=ORIENTED_EDGE('',*,*,#318,.F.);
#239=ORIENTED_EDGE('',*,*,#319,.F.);
#240=ORIENTED_EDGE('',*,*,#300,.T.);
#241=ORIENTED_EDGE('',*,*,#319,.T.);
#242=ORIENTED_EDGE('',*,*,#320,.F.);
#243=ORIENTED_EDGE('',*,*,#321,.F.);
#244=ORIENTED_EDGE('',*,*,#301,.T.);
#245=ORIENTED_EDGE('',*,*,#321,.T.);
#246=ORIENTED_EDGE('',*,*,#322,.F.);
#247=ORIENTED_EDGE('',*,*,#323,.F.);
#248=ORIENTED_EDGE('',*,*,#302,.T.);
#249=ORIENTED_EDGE('',*,*,#323,.T.);
#250=ORIENTED_EDGE('',*,*,#324,.F.);
#251=ORIENTED_EDGE('',*,*,#325,.F.);
#252=ORIENTED_EDGE('',*,*,#303,.T.);
#253=ORIENTED_EDGE('',*,*,#325,.T.);
#254=ORIENTED_EDGE('',*,*,#326,.F.);
#255=ORIENTED_EDGE('',*,*,#327,.F.);
#256=ORIENTED_EDGE('',*,*,#304,.T.);
#257=ORIENTED_EDGE('',*,*,#327,.T.);
#258=ORIENTED_EDGE('',*,*,#328,.F.);
#259=ORIENTED_EDGE('',*,*,#317,.F.);
#260=ORIENTED_EDGE('',*,*,#318,.T.);
#261=ORIENTED_EDGE('',*,*,#328,.T.);
#262=ORIENTED_EDGE('',*,*,#326,.T.);
#263=ORIENTED_EDGE('',*,*,#324,.T.);
#264=ORIENTED_EDGE('',*,*,#322,.T.);
#265=ORIENTED_EDGE('',*,*,#320,.T.);
#266=ORIENTED_EDGE('',*,*,#314,.F.);
#267=VERTEX_POINT('',#504);
#268=VERTEX_POINT('',#506);
#269=VERTEX_POINT('',#508);
#270=VERTEX_POINT('',#510);
#271=VERTEX_POINT('',#512);
#272=VERTEX_POINT('',#513);
#273=VERTEX_POINT('',#515);
#274=VERTEX_POINT('',#517);
#275=VERTEX_POINT('',#519);
#276=VERTEX_POINT('',#521);
#277=VERTEX_POINT('',#525);
#278=VERTEX_POINT('',#527);
#279=VERTEX_POINT('',#529);
#280=VERTEX_POINT('',#531);
#281=VERTEX_POINT('',#533);
#282=VERTEX_POINT('',#536);
#283=VERTEX_POINT('',#538);
#284=VERTEX_POINT('',#541);
#285=VERTEX_POINT('',#544);
#286=VERTEX_POINT('',#552);
#287=VERTEX_POINT('',#554);
#288=VERTEX_POINT('',#557);
#289=VERTEX_POINT('',#561);
#290=VERTEX_POINT('',#563);
#291=VERTEX_POINT('',#567);
#292=VERTEX_POINT('',#571);
#293=VERTEX_POINT('',#575);
#294=VERTEX_POINT('',#579);
#295=EDGE_CURVE('',#267,#267,#334,.T.);
#296=EDGE_CURVE('',#268,#268,#335,.T.);
#297=EDGE_CURVE('',#269,#269,#336,.T.);
#298=EDGE_CURVE('',#270,#270,#337,.T.);
#299=EDGE_CURVE('',#271,#272,#89,.T.);
#300=EDGE_CURVE('',#273,#271,#90,.T.);
#301=EDGE_CURVE('',#274,#273,#91,.T.);
#302=EDGE_CURVE('',#275,#274,#92,.T.);
#303=EDGE_CURVE('',#276,#275,#93,.T.);
#304=EDGE_CURVE('',#272,#276,#94,.T.);
#305=EDGE_CURVE('',#277,#277,#338,.T.);
#306=EDGE_CURVE('',#278,#278,#339,.T.);
#307=EDGE_CURVE('',#279,#279,#340,.T.);
#308=EDGE_CURVE('',#280,#280,#341,.T.);
#309=EDGE_CURVE('',#281,#281,#342,.T.);
#310=EDGE_CURVE('',#282,#282,#343,.T.);
#311=EDGE_CURVE('',#283,#283,#344,.T.);
#312=EDGE_CURVE('',#284,#284,#345,.T.);
#313=EDGE_CURVE('',#285,#285,#346,.T.);
#314=EDGE_CURVE('',#286,#286,#347,.T.);
#315=EDGE_CURVE('',#287,#287,#348,.T.);
#316=EDGE_CURVE('',#288,#288,#349,.T.);
#317=EDGE_CURVE('',#272,#289,#95,.T.);
#318=EDGE_CURVE('',#290,#289,#96,.T.);
#319=EDGE_CURVE('',#271,#290,#97,.T.);
#320=EDGE_CURVE('',#291,#290,#98,.T.);
#321=EDGE_CURVE('',#273,#291,#99,.T.);
#322=EDGE_CURVE('',#292,#291,#100,.T.);
#323=EDGE_CURVE('',#274,#292,#101,.T.);
#324=EDGE_CURVE('',#293,#292,#102,.T.);
#325=EDGE_CURVE('',#275,#293,#103,.T.);
#326=EDGE_CURVE('',#294,#293,#104,.T.);
#327=EDGE_CURVE('',#276,#294,#105,.T.);
#328=EDGE_CURVE('',#289,#294,#106,.T.);
#329=CURVE_STYLE('',#331,POSITIVE_LENGTH_MEASURE(0.18),#362);
#330=CURVE_STYLE('',#332,POSITIVE_LENGTH_MEASURE(0.18),#361);
#331=DRAUGHTING_PRE_DEFINED_CURVE_FONT('continuous');
#332=DRAUGHTING_PRE_DEFINED_CURVE_FONT('continuous');
#333=CIRCLE('Arc3',#365,1.2);
#334=CIRCLE('',#367,9.50000000000003);
#335=CIRCLE('',#368,1.2);
#336=CIRCLE('',#369,1.2);
#337=CIRCLE('',#370,1.2);
#338=CIRCLE('',#372,3.75);
#339=CIRCLE('',#373,11.85);
#340=CIRCLE('',#374,1.2);
#341=CIRCLE('',#375,1.2);
#342=CIRCLE('',#376,1.2);
#343=CIRCLE('',#378,12.35);
#344=CIRCLE('',#379,12.35);
#345=CIRCLE('',#381,14.);
#346=CIRCLE('',#383,14.);
#347=CIRCLE('',#390,1.75);
#348=CIRCLE('',#391,1.75);
#349=CIRCLE('',#393,3.75);
#350=PRESENTATION_LAYER_ASSIGNMENT('1','Layer 1',(#500,#333,#366,#41));
#351=STYLED_ITEM('',(#355),#500);
#352=STYLED_ITEM('',(#356),#333);
#353=STYLED_ITEM('',(#357),#366);
#354=STYLED_ITEM('',(#358),#41);
#355=PRESENTATION_STYLE_ASSIGNMENT((#359));
#356=PRESENTATION_STYLE_ASSIGNMENT((#329));
#357=PRESENTATION_STYLE_ASSIGNMENT((#330));
#358=PRESENTATION_STYLE_ASSIGNMENT((#36));
#359=POINT_STYLE('',#360,POSITIVE_LENGTH_MEASURE(3.),#361);
#360=PRE_DEFINED_POINT_MARKER_SYMBOL('plus');
#361=COLOUR_RGB('Light Weak Red',0.8,0.6,0.6);
#362=COLOUR_RGB('Dark Hard Blue',0.,0.,0.8);
#363=COLOUR_RGB('Light Dull Red',0.8,0.4,0.4);
#364=AXIS2_PLACEMENT_3D('',#499,#403,#404);
#365=AXIS2_PLACEMENT_3D('',#501,#405,#406);
#366=AXIS2_PLACEMENT_3D('',#502,#407,#408);
#367=AXIS2_PLACEMENT_3D('',#503,#409,#410);
#368=AXIS2_PLACEMENT_3D('',#505,#411,#412);
#369=AXIS2_PLACEMENT_3D('',#507,#413,#414);
#370=AXIS2_PLACEMENT_3D('',#509,#415,#416);
#371=AXIS2_PLACEMENT_3D('',#523,#423,#424);
#372=AXIS2_PLACEMENT_3D('',#524,#425,#426);
#373=AXIS2_PLACEMENT_3D('',#526,#427,#428);
#374=AXIS2_PLACEMENT_3D('',#528,#429,#430);
#375=AXIS2_PLACEMENT_3D('',#530,#431,#432);
#376=AXIS2_PLACEMENT_3D('',#532,#433,#434);
#377=AXIS2_PLACEMENT_3D('',#534,#435,#436);
#378=AXIS2_PLACEMENT_3D('',#535,#437,#438);
#379=AXIS2_PLACEMENT_3D('',#537,#439,#440);
#380=AXIS2_PLACEMENT_3D('',#539,#441,#442);
#381=AXIS2_PLACEMENT_3D('',#540,#443,#444);
#382=AXIS2_PLACEMENT_3D('',#542,#445,#446);
#383=AXIS2_PLACEMENT_3D('',#543,#447,#448);
#384=AXIS2_PLACEMENT_3D('',#545,#449,#450);
#385=AXIS2_PLACEMENT_3D('',#546,#451,#452);
#386=AXIS2_PLACEMENT_3D('',#547,#453,#454);
#387=AXIS2_PLACEMENT_3D('',#548,#455,#456);
#388=AXIS2_PLACEMENT_3D('',#549,#457,#458);
#389=AXIS2_PLACEMENT_3D('',#550,#459,#460);
#390=AXIS2_PLACEMENT_3D('',#551,#461,#462);
#391=AXIS2_PLACEMENT_3D('',#553,#463,#464);
#392=AXIS2_PLACEMENT_3D('',#555,#465,#466);
#393=AXIS2_PLACEMENT_3D('',#556,#467,#468);
#394=AXIS2_PLACEMENT_3D('',#558,#469,#470);
#395=AXIS2_PLACEMENT_3D('',#559,#471,#472);
#396=AXIS2_PLACEMENT_3D('',#565,#476,#477);
#397=AXIS2_PLACEMENT_3D('',#569,#480,#481);
#398=AXIS2_PLACEMENT_3D('',#573,#484,#485);
#399=AXIS2_PLACEMENT_3D('',#577,#488,#489);
#400=AXIS2_PLACEMENT_3D('',#581,#492,#493);
#401=AXIS2_PLACEMENT_3D('',#583,#495,#496);
#402=AXIS2_PLACEMENT_3D('',#584,#497,#498);
#403=DIRECTION('',(0.,0.,1.));
#404=DIRECTION('',(1.,0.,0.));
#405=DIRECTION('',(9.94056667387886E-17,1.,3.4498049472978E-16));
#406=DIRECTION('',(1.,-9.94056667387885E-17,-1.66533453693773E-16));
#407=DIRECTION('',(0.,0.,1.));
#408=DIRECTION('',(1.,0.,0.));
#409=DIRECTION('',(0.,-1.,0.));
#410=DIRECTION('',(0.,0.,-1.));
#411=DIRECTION('',(0.,-1.,0.));
#412=DIRECTION('',(0.,0.,1.));
#413=DIRECTION('',(0.,-1.,0.));
#414=DIRECTION('',(0.,0.,1.));
#415=DIRECTION('',(0.,-1.,0.));
#416=DIRECTION('',(0.,0.,1.));
#417=DIRECTION('',(7.2400703553598E-16,0.,-1.));
#418=DIRECTION('',(-0.866025403784438,0.,-0.500000000000001));
#419=DIRECTION('',(-0.866025403784439,0.,0.5));
#420=DIRECTION('',(-1.08601055330397E-15,0.,1.));
#421=DIRECTION('',(0.866025403784438,0.,0.500000000000001));
#422=DIRECTION('',(0.866025403784439,0.,-0.5));
#423=DIRECTION('',(0.,1.,0.));
#424=DIRECTION('',(0.,0.,1.));
#425=DIRECTION('',(0.,-1.,0.));
#426=DIRECTION('',(0.,0.,-1.));
#427=DIRECTION('',(0.,1.,0.));
#428=DIRECTION('',(0.,0.,-1.));
#429=DIRECTION('',(0.,1.,0.));
#430=DIRECTION('',(0.,0.,-1.));
#431=DIRECTION('',(0.,1.,0.));
#432=DIRECTION('',(0.,0.,-1.));
#433=DIRECTION('',(0.,1.,0.));
#434=DIRECTION('',(0.,0.,-1.));
#435=DIRECTION('',(0.,-1.,0.));
#436=DIRECTION('',(0.,0.,-1.));
#437=DIRECTION('',(0.,-1.,0.));
#438=DIRECTION('',(0.,0.,-1.));
#439=DIRECTION('',(0.,-1.,0.));
#440=DIRECTION('',(0.,0.,-1.));
#441=DIRECTION('',(0.,-1.,0.));
#442=DIRECTION('',(0.,0.,-1.));
#443=DIRECTION('',(0.,-1.,0.));
#444=DIRECTION('',(0.,0.,-1.));
#445=DIRECTION('',(0.,-1.,0.));
#446=DIRECTION('',(0.,0.,-1.));
#447=DIRECTION('',(0.,-1.,0.));
#448=DIRECTION('',(0.,0.,-1.));
#449=DIRECTION('',(0.,-1.,0.));
#450=DIRECTION('',(0.,0.,-1.));
#451=DIRECTION('',(0.,1.,0.));
#452=DIRECTION('',(0.,5.4530878497792E-17,1.));
#453=DIRECTION('',(-9.94056667387886E-17,-1.,-3.4498049472978E-16));
#454=DIRECTION('',(0.,0.,-1.));
#455=DIRECTION('',(-2.49059038876719E-16,-1.,2.5857808004081E-16));
#456=DIRECTION('',(0.,0.,-1.));
#457=DIRECTION('',(3.48464705615507E-16,-1.,8.64024146889701E-17));
#458=DIRECTION('',(1.,0.,0.));
#459=DIRECTION('',(0.,-1.,0.));
#460=DIRECTION('',(0.,3.85551224472545E-18,-1.));
#461=DIRECTION('',(-4.77778709734146E-16,-1.,1.34420736530035E-16));
#462=DIRECTION('',(-1.,4.95635278850516E-16,0.));
#463=DIRECTION('',(0.,1.,0.));
#464=DIRECTION('',(0.,0.,-1.));
#465=DIRECTION('',(0.,-1.,0.));
#466=DIRECTION('',(0.,0.,-1.));
#467=DIRECTION('',(0.,1.,0.));
#468=DIRECTION('',(0.,0.,-1.));
#469=DIRECTION('',(0.,-1.,0.));
#470=DIRECTION('',(0.,0.,-1.));
#471=DIRECTION('',(0.,-1.,0.));
#472=DIRECTION('',(0.,0.,-1.));
#473=DIRECTION('',(9.94056667387886E-17,1.,3.4498049472978E-16));
#474=DIRECTION('',(7.2400703553598E-16,-1.34420736530036E-16,-1.));
#475=DIRECTION('',(9.94056667387886E-17,1.,3.4498049472978E-16));
#476=DIRECTION('',(1.,-9.94056667387888E-17,7.2400703553598E-16));
#477=DIRECTION('',(7.24247051220317E-16,0.,-1.));
#478=DIRECTION('',(-0.866025403784438,3.46558131752104E-16,-0.500000000000001));
#479=DIRECTION('',(9.94056667387886E-17,1.,3.4498049472978E-16));
#480=DIRECTION('',(0.500000000000001,2.49059038876718E-16,-0.866025403784438));
#481=DIRECTION('',(-0.866025403784438,0.,-0.500000000000001));
#482=DIRECTION('',(-0.866025403784439,4.80978868282139E-16,0.5));
#483=DIRECTION('',(9.94056667387886E-17,1.,3.4498049472978E-16));
#484=DIRECTION('',(-0.5,3.48464705615507E-16,-0.866025403784439));
#485=DIRECTION('',(-0.866025403784439,0.,0.5));
#486=DIRECTION('',(-1.08601055330397E-15,6.13821967789851E-16,1.));
#487=DIRECTION('',(9.94056667387886E-17,1.,3.4498049472978E-16));
#488=DIRECTION('',(-1.,9.9405666738789E-17,-1.08601055330397E-15));
#489=DIRECTION('',(-1.08593689596148E-15,0.,1.));
#490=DIRECTION('',(0.866025403784438,6.12244330767527E-16,0.500000000000001));
#491=DIRECTION('',(9.94056667387886E-17,1.,3.4498049472978E-16));
#492=DIRECTION('',(-0.500000000000001,-2.49059038876718E-16,0.866025403784438));
#493=DIRECTION('',(0.866025403784438,0.,0.500000000000001));
#494=DIRECTION('',(0.866025403784439,4.77823594237492E-16,-0.5));
#495=DIRECTION('',(0.499999999999999,-3.48464705615507E-16,0.866025403784439));
#496=DIRECTION('',(0.866025403784439,0.,-0.5));
#497=DIRECTION('',(4.77778709734146E-16,1.,-1.34420736530035E-16));
#498=DIRECTION('',(-1.,4.77699477197113E-16,0.));
#499=CARTESIAN_POINT('',(0.,0.,0.));
#500=CARTESIAN_POINT('',(0.,0.,0.));
#501=CARTESIAN_POINT('',(1.02223706688891E-32,-1.27769839919373E-15,-7.5));
#502=CARTESIAN_POINT('',(0.,0.,0.));
#503=CARTESIAN_POINT('',(0.,-6.,0.));
#504=CARTESIAN_POINT('',(0.,-6.,-9.50000000000003));
#505=CARTESIAN_POINT('',(-1.46379573842113E-15,-6.,-7.5));
#506=CARTESIAN_POINT('',(-1.46379573842113E-15,-6.,-6.3));
#507=CARTESIAN_POINT('',(-6.4951905283833,-6.,3.74999999999999));
#508=CARTESIAN_POINT('',(-6.4951905283833,-6.,4.94999999999999));
#509=CARTESIAN_POINT('',(6.49519052838328,-6.,3.75000000000002));
#510=CARTESIAN_POINT('',(6.49519052838328,-6.,4.95000000000002));
#511=CARTESIAN_POINT('',(-4.15000000000001,-6.,9.50000000000003));
#512=CARTESIAN_POINT('',(-4.15,-6.,2.39600361713694));
#513=CARTESIAN_POINT('',(-4.15,-6.,-2.39600361713695));
#514=CARTESIAN_POINT('',(2.0386206679761,-6.,5.96900542570543));
#515=CARTESIAN_POINT('',(-4.06588095238635E-15,-6.,4.79200723427389));
#516=CARTESIAN_POINT('',(-2.0386206679761,-6.,5.96900542570542));
#517=CARTESIAN_POINT('',(4.15,-6.,2.39600361713695));
#518=CARTESIAN_POINT('',(4.14999999999999,-6.,9.50000000000004));
#519=CARTESIAN_POINT('',(4.15,-6.,-2.39600361713695));
#520=CARTESIAN_POINT('',(6.18862066797611,-6.,-1.21900542570541));
#521=CARTESIAN_POINT('',(5.47509816548609E-15,-6.,-4.7920072342739));
#522=CARTESIAN_POINT('',(-6.18862066797609,-6.,-1.21900542570542));
#523=CARTESIAN_POINT('',(8.470329472543E-23,-6.,9.50000000000003));
#524=CARTESIAN_POINT('',(0.,3.5,0.));
#525=CARTESIAN_POINT('',(0.,3.5,-3.75));
#526=CARTESIAN_POINT('',(0.,3.5,0.));
#527=CARTESIAN_POINT('',(0.,3.5,-11.85));
#528=CARTESIAN_POINT('',(6.49519052838328,3.5,3.75000000000002));
#529=CARTESIAN_POINT('',(6.49519052838328,3.5,2.55000000000002));
#530=CARTESIAN_POINT('',(-6.4951905283833,3.5,3.74999999999999));
#531=CARTESIAN_POINT('',(-6.4951905283833,3.5,2.54999999999999));
#532=CARTESIAN_POINT('',(-5.19441904402643E-16,3.5,-7.5));
#533=CARTESIAN_POINT('',(-5.19441904402643E-16,3.5,-8.7));
#534=CARTESIAN_POINT('',(0.,3.5,0.));
#535=CARTESIAN_POINT('',(0.,3.,0.));
#536=CARTESIAN_POINT('',(0.,3.,-12.35));
#537=CARTESIAN_POINT('',(0.,-4.33680868994202E-16,0.));
#538=CARTESIAN_POINT('',(0.,-4.33680868994202E-16,-12.35));
#539=CARTESIAN_POINT('',(0.,0.,0.));
#540=CARTESIAN_POINT('',(0.,-1.33226762955019E-15,0.));
#541=CARTESIAN_POINT('',(0.,-1.33226762955019E-15,-14.));
#542=CARTESIAN_POINT('',(0.,-8.82974249272195E-16,12.35));
#543=CARTESIAN_POINT('',(0.,-1.5,0.));
#544=CARTESIAN_POINT('',(0.,-1.5,-14.));
#545=CARTESIAN_POINT('',(0.,0.,0.));
#546=CARTESIAN_POINT('',(0.,-1.5,0.));
#547=CARTESIAN_POINT('',(4.71703960084518E-17,9.2,-7.5));
#548=CARTESIAN_POINT('',(-6.4951905283833,9.2,3.74999999999998));
#549=CARTESIAN_POINT('',(6.49519052838328,9.2,3.75000000000002));
#550=CARTESIAN_POINT('',(0.,3.,0.));
#551=CARTESIAN_POINT('',(0.,-1.8,0.));
#552=CARTESIAN_POINT('',(-1.75,-1.8,0.));
#553=CARTESIAN_POINT('',(0.,1.5,0.));
#554=CARTESIAN_POINT('',(0.,1.5,-1.75));
#555=CARTESIAN_POINT('',(0.,-11.5,0.));
#556=CARTESIAN_POINT('',(0.,1.5,0.));
#557=CARTESIAN_POINT('',(0.,1.5,-3.75));
#558=CARTESIAN_POINT('',(0.,1.5,0.));
#559=CARTESIAN_POINT('',(0.,3.5,0.));
#560=CARTESIAN_POINT('',(-4.15,-1.8,-2.39600361713695));
#561=CARTESIAN_POINT('',(-4.15,-1.8,-2.39600361713695));
#562=CARTESIAN_POINT('',(-4.15,-1.8,-2.39600361713695));
#563=CARTESIAN_POINT('',(-4.15,-1.8,2.39600361713694));
#564=CARTESIAN_POINT('',(-4.15,-1.8,2.39600361713694));
#565=CARTESIAN_POINT('',(-4.15,-1.8,-2.39600361713695));
#566=CARTESIAN_POINT('',(-4.15,-1.8,2.39600361713694));
#567=CARTESIAN_POINT('',(-3.64837715208343E-15,-1.8,4.7920072342739));
#568=CARTESIAN_POINT('',(-3.64837715208343E-15,-1.8,4.7920072342739));
#569=CARTESIAN_POINT('',(-4.15,-1.8,2.39600361713694));
#570=CARTESIAN_POINT('',(-3.73164387893032E-15,-1.8,4.7920072342739));
#571=CARTESIAN_POINT('',(4.15,-1.8,2.39600361713695));
#572=CARTESIAN_POINT('',(4.15,-1.8,2.39600361713695));
#573=CARTESIAN_POINT('',(-3.73164387893032E-15,-1.8,4.7920072342739));
#574=CARTESIAN_POINT('',(4.15,-1.8,2.39600361713695));
#575=CARTESIAN_POINT('',(4.15,-1.8,-2.39600361713694));
#576=CARTESIAN_POINT('',(4.15,-1.8,-2.39600361713694));
#577=CARTESIAN_POINT('',(4.15,-1.8,2.39600361713695));
#578=CARTESIAN_POINT('',(4.15,-1.8,-2.39600361713694));
#579=CARTESIAN_POINT('',(5.89260196578901E-15,-1.8,-4.7920072342739));
#580=CARTESIAN_POINT('',(5.89260196578901E-15,-1.8,-4.7920072342739));
#581=CARTESIAN_POINT('',(4.15,-1.8,-2.39600361713694));
#582=CARTESIAN_POINT('',(6.03831873777106E-15,-1.8,-4.7920072342739));
#583=CARTESIAN_POINT('',(6.03831873777106E-15,-1.8,-4.7920072342739));
#584=CARTESIAN_POINT('',(-1.7893020012982E-16,-1.8,-6.20964890513604E-16));
#585=MECHANICAL_DESIGN_GEOMETRIC_PRESENTATION_REPRESENTATION('',(#351,#352,
#353,#354),#586);
#586=(
GEOMETRIC_REPRESENTATION_CONTEXT(3)
GLOBAL_UNCERTAINTY_ASSIGNED_CONTEXT((#587))
GLOBAL_UNIT_ASSIGNED_CONTEXT((#593,#589,#588))
REPRESENTATION_CONTEXT('J1_SHAFT','TOP_LEVEL_ASSEMBLY_PART')
);
#587=UNCERTAINTY_MEASURE_WITH_UNIT(LENGTH_MEASURE(2.E-5),#593,
'DISTANCE_ACCURACY_VALUE','Maximum Tolerance applied to model');
#588=(
NAMED_UNIT(*)
SI_UNIT($,.STERADIAN.)
SOLID_ANGLE_UNIT()
);
#589=(
CONVERSION_BASED_UNIT('DEGREE',#591)
NAMED_UNIT(#590)
PLANE_ANGLE_UNIT()
);
#590=DIMENSIONAL_EXPONENTS(0.,0.,0.,0.,0.,0.,0.);
#591=PLANE_ANGLE_MEASURE_WITH_UNIT(PLANE_ANGLE_MEASURE(0.0174532925),#592);
#592=(
NAMED_UNIT(*)
PLANE_ANGLE_UNIT()
SI_UNIT($,.RADIAN.)
);
#593=(
LENGTH_UNIT()
NAMED_UNIT(*)
SI_UNIT(.MILLI.,.METRE.)
);
ENDSEC;
END-ISO-10303-21;
