ISO-10303-21;
HEADER;
/* Generated by software containing ST-Developer
 * from STEP Tools, Inc. (www.steptools.com) 
 */
/* OPTION: using custom schema-name function */

FILE_DESCRIPTION(
/* description */ (''),
/* implementation_level */ '2;1');

FILE_NAME(
/* name */ 'LM8.stp',
/* time_stamp */ '2022-07-20T21:18:35+09:00',
/* author */ (''),
/* organization */ (''),
/* preprocessor_version */ 'ST-DEVELOPER v16.7',
/* originating_system */ '',
/* authorisation */ '');

FILE_SCHEMA (('AUTOMOTIVE_DESIGN { 1 0 10303 214 3 1 1 1 }'));
ENDSEC;

DATA;
#10=CONSTRUCTIVE_GEOMETRY_REPRESENTATION_RELATIONSHIP(
'supplemental geometry','',#34,#11);
#11=CONSTRUCTIVE_GEOMETRY_REPRESENTATION('supplemental geometry',(#211),
#346);
#12=GEOMETRICALLY_BOUNDED_WIREFRAME_SHAPE_REPRESENTATION('LM8-None',(#35),
#346);
#13=PROPERTY_DEFINITION_REPRESENTATION(#17,#15);
#14=PROPERTY_DEFINITION_REPRESENTATION(#18,#16);
#15=REPRESENTATION('',(#19),#346);
#16=REPRESENTATION('',(#20),#346);
#17=PROPERTY_DEFINITION('pmi validation property','',#25);
#18=PROPERTY_DEFINITION('pmi validation property','',#25);
#19=VALUE_REPRESENTATION_ITEM('number of annotations',COUNT_MEASURE(0.));
#20=VALUE_REPRESENTATION_ITEM('number of views',COUNT_MEASURE(0.));
#21=SHAPE_REPRESENTATION_RELATIONSHIP('None',
'relationship between LM8-None and LM8-None',#34,#23);
#22=SHAPE_REPRESENTATION_RELATIONSHIP('None',
'relationship between LM8-None and LM8-None',#34,#12);
#23=ADVANCED_BREP_SHAPE_REPRESENTATION('LM8-None',(#41),#346);
#24=SHAPE_DEFINITION_REPRESENTATION(#25,#34);
#25=PRODUCT_DEFINITION_SHAPE('','',#26);
#26=PRODUCT_DEFINITION(' ','',#28,#27);
#27=PRODUCT_DEFINITION_CONTEXT('part definition',#33,'design');
#28=PRODUCT_DEFINITION_FORMATION_WITH_SPECIFIED_SOURCE(' ',' ',#30,
 .NOT_KNOWN.);
#29=PRODUCT_RELATED_PRODUCT_CATEGORY('part','',(#30));
#30=PRODUCT('LM8','LM8',' ',(#31));
#31=PRODUCT_CONTEXT(' ',#33,'mechanical');
#32=APPLICATION_PROTOCOL_DEFINITION('international standard',
'automotive_design',2010,#33);
#33=APPLICATION_CONTEXT(
'core data for automotive mechanical design processes');
#34=SHAPE_REPRESENTATION('LM8-None',(#210),#346);
#35=GEOMETRIC_CURVE_SET('None',(#301));
#36=SURFACE_STYLE_USAGE(.BOTH.,#37);
#37=SURFACE_SIDE_STYLE('',(#38));
#38=SURFACE_STYLE_FILL_AREA(#39);
#39=FILL_AREA_STYLE('',(#40));
#40=FILL_AREA_STYLE_COLOUR('',#209);
#41=MANIFOLD_SOLID_BREP('LM8',#42);
#42=CLOSED_SHELL('',(#55,#56,#57,#58,#59,#60,#61,#62,#63,#64,#65,#66,#67,
#68));
#43=CYLINDRICAL_SURFACE('',#218,4.);
#44=CYLINDRICAL_SURFACE('',#224,7.5);
#45=CYLINDRICAL_SURFACE('',#228,7.15);
#46=CYLINDRICAL_SURFACE('',#232,7.5);
#47=CYLINDRICAL_SURFACE('',#236,7.15);
#48=CYLINDRICAL_SURFACE('',#239,7.5);
#49=PLANE('',#216);
#50=PLANE('',#220);
#51=PLANE('',#226);
#52=PLANE('',#230);
#53=PLANE('',#234);
#54=PLANE('',#238);
#55=ADVANCED_FACE('',(#71,#72),#69,.T.);
#56=ADVANCED_FACE('',(#73,#74),#49,.T.);
#57=ADVANCED_FACE('',(#75,#76),#43,.F.);
#58=ADVANCED_FACE('',(#77,#78),#50,.T.);
#59=ADVANCED_FACE('',(#79,#80),#70,.T.);
#60=ADVANCED_FACE('',(#81,#82),#44,.T.);
#61=ADVANCED_FACE('',(#83,#84),#51,.T.);
#62=ADVANCED_FACE('',(#85,#86),#45,.T.);
#63=ADVANCED_FACE('',(#87,#88),#52,.T.);
#64=ADVANCED_FACE('',(#89,#90),#46,.T.);
#65=ADVANCED_FACE('',(#91,#92),#53,.T.);
#66=ADVANCED_FACE('',(#93,#94),#47,.T.);
#67=ADVANCED_FACE('',(#95,#96),#54,.T.);
#68=ADVANCED_FACE('',(#97,#98),#48,.T.);
#69=TOROIDAL_SURFACE('',#214,6.9,0.6);
#70=TOROIDAL_SURFACE('',#222,6.9,0.6);
#71=FACE_BOUND('',#99,.T.);
#72=FACE_BOUND('',#100,.T.);
#73=FACE_BOUND('',#101,.T.);
#74=FACE_BOUND('',#102,.T.);
#75=FACE_BOUND('',#103,.T.);
#76=FACE_BOUND('',#104,.T.);
#77=FACE_BOUND('',#105,.T.);
#78=FACE_BOUND('',#106,.T.);
#79=FACE_BOUND('',#107,.T.);
#80=FACE_BOUND('',#108,.T.);
#81=FACE_BOUND('',#109,.T.);
#82=FACE_BOUND('',#110,.T.);
#83=FACE_BOUND('',#111,.T.);
#84=FACE_BOUND('',#112,.T.);
#85=FACE_BOUND('',#113,.T.);
#86=FACE_BOUND('',#114,.T.);
#87=FACE_BOUND('',#115,.T.);
#88=FACE_BOUND('',#116,.T.);
#89=FACE_BOUND('',#117,.T.);
#90=FACE_BOUND('',#118,.T.);
#91=FACE_BOUND('',#119,.T.);
#92=FACE_BOUND('',#120,.T.);
#93=FACE_BOUND('',#121,.T.);
#94=FACE_BOUND('',#122,.T.);
#95=FACE_BOUND('',#123,.T.);
#96=FACE_BOUND('',#124,.T.);
#97=FACE_BOUND('',#125,.T.);
#98=FACE_BOUND('',#126,.T.);
#99=EDGE_LOOP('',(#127));
#100=EDGE_LOOP('',(#128));
#101=EDGE_LOOP('',(#129));
#102=EDGE_LOOP('',(#130));
#103=EDGE_LOOP('',(#131));
#104=EDGE_LOOP('',(#132));
#105=EDGE_LOOP('',(#133));
#106=EDGE_LOOP('',(#134));
#107=EDGE_LOOP('',(#135));
#108=EDGE_LOOP('',(#136));
#109=EDGE_LOOP('',(#137));
#110=EDGE_LOOP('',(#138));
#111=EDGE_LOOP('',(#139));
#112=EDGE_LOOP('',(#140));
#113=EDGE_LOOP('',(#141));
#114=EDGE_LOOP('',(#142));
#115=EDGE_LOOP('',(#143));
#116=EDGE_LOOP('',(#144));
#117=EDGE_LOOP('',(#145));
#118=EDGE_LOOP('',(#146));
#119=EDGE_LOOP('',(#147));
#120=EDGE_LOOP('',(#148));
#121=EDGE_LOOP('',(#149));
#122=EDGE_LOOP('',(#150));
#123=EDGE_LOOP('',(#151));
#124=EDGE_LOOP('',(#152));
#125=EDGE_LOOP('',(#153));
#126=EDGE_LOOP('',(#154));
#127=ORIENTED_EDGE('',*,*,#169,.T.);
#128=ORIENTED_EDGE('',*,*,#170,.F.);
#129=ORIENTED_EDGE('',*,*,#171,.T.);
#130=ORIENTED_EDGE('',*,*,#169,.F.);
#131=ORIENTED_EDGE('',*,*,#172,.T.);
#132=ORIENTED_EDGE('',*,*,#171,.F.);
#133=ORIENTED_EDGE('',*,*,#173,.T.);
#134=ORIENTED_EDGE('',*,*,#172,.F.);
#135=ORIENTED_EDGE('',*,*,#174,.T.);
#136=ORIENTED_EDGE('',*,*,#173,.F.);
#137=ORIENTED_EDGE('',*,*,#175,.T.);
#138=ORIENTED_EDGE('',*,*,#174,.F.);
#139=ORIENTED_EDGE('',*,*,#176,.T.);
#140=ORIENTED_EDGE('',*,*,#175,.F.);
#141=ORIENTED_EDGE('',*,*,#177,.T.);
#142=ORIENTED_EDGE('',*,*,#176,.F.);
#143=ORIENTED_EDGE('',*,*,#178,.T.);
#144=ORIENTED_EDGE('',*,*,#177,.F.);
#145=ORIENTED_EDGE('',*,*,#179,.T.);
#146=ORIENTED_EDGE('',*,*,#178,.F.);
#147=ORIENTED_EDGE('',*,*,#180,.T.);
#148=ORIENTED_EDGE('',*,*,#179,.F.);
#149=ORIENTED_EDGE('',*,*,#181,.T.);
#150=ORIENTED_EDGE('',*,*,#180,.F.);
#151=ORIENTED_EDGE('',*,*,#182,.T.);
#152=ORIENTED_EDGE('',*,*,#181,.F.);
#153=ORIENTED_EDGE('',*,*,#170,.T.);
#154=ORIENTED_EDGE('',*,*,#182,.F.);
#155=VERTEX_POINT('',#304);
#156=VERTEX_POINT('',#306);
#157=VERTEX_POINT('',#309);
#158=VERTEX_POINT('',#312);
#159=VERTEX_POINT('',#315);
#160=VERTEX_POINT('',#318);
#161=VERTEX_POINT('',#321);
#162=VERTEX_POINT('',#324);
#163=VERTEX_POINT('',#327);
#164=VERTEX_POINT('',#330);
#165=VERTEX_POINT('',#333);
#166=VERTEX_POINT('',#336);
#167=VERTEX_POINT('',#339);
#168=VERTEX_POINT('',#342);
#169=EDGE_CURVE('',#155,#155,#183,.T.);
#170=EDGE_CURVE('',#156,#156,#184,.T.);
#171=EDGE_CURVE('',#157,#157,#185,.T.);
#172=EDGE_CURVE('',#158,#158,#186,.T.);
#173=EDGE_CURVE('',#159,#159,#187,.T.);
#174=EDGE_CURVE('',#160,#160,#188,.T.);
#175=EDGE_CURVE('',#161,#161,#189,.T.);
#176=EDGE_CURVE('',#162,#162,#190,.T.);
#177=EDGE_CURVE('',#163,#163,#191,.T.);
#178=EDGE_CURVE('',#164,#164,#192,.T.);
#179=EDGE_CURVE('',#165,#165,#193,.T.);
#180=EDGE_CURVE('',#166,#166,#194,.T.);
#181=EDGE_CURVE('',#167,#167,#195,.T.);
#182=EDGE_CURVE('',#168,#168,#196,.T.);
#183=CIRCLE('',#212,6.9);
#184=CIRCLE('',#213,7.5);
#185=CIRCLE('',#215,4.);
#186=CIRCLE('',#217,4.);
#187=CIRCLE('',#219,6.9);
#188=CIRCLE('',#221,7.5);
#189=CIRCLE('',#223,7.5);
#190=CIRCLE('',#225,7.15);
#191=CIRCLE('',#227,7.15);
#192=CIRCLE('',#229,7.5);
#193=CIRCLE('',#231,7.5);
#194=CIRCLE('',#233,7.15);
#195=CIRCLE('',#235,7.15);
#196=CIRCLE('',#237,7.5);
#197=CURVE_STYLE('',#198,POSITIVE_LENGTH_MEASURE(0.18),#208);
#198=DRAUGHTING_PRE_DEFINED_CURVE_FONT('continuous');
#199=PRESENTATION_LAYER_ASSIGNMENT('1','Layer 1',(#301,#211,#41));
#200=STYLED_ITEM('',(#203),#301);
#201=STYLED_ITEM('',(#204),#211);
#202=STYLED_ITEM('',(#205),#41);
#203=PRESENTATION_STYLE_ASSIGNMENT((#206));
#204=PRESENTATION_STYLE_ASSIGNMENT((#197));
#205=PRESENTATION_STYLE_ASSIGNMENT((#36));
#206=POINT_STYLE('',#207,POSITIVE_LENGTH_MEASURE(3.),#208);
#207=PRE_DEFINED_POINT_MARKER_SYMBOL('plus');
#208=COLOUR_RGB('Light Weak Red',0.8,0.6,0.6);
#209=COLOUR_RGB('Medium Weak Yellow',0.6,0.6,0.4);
#210=AXIS2_PLACEMENT_3D('',#300,#240,#241);
#211=AXIS2_PLACEMENT_3D('',#302,#242,#243);
#212=AXIS2_PLACEMENT_3D('',#303,#244,#245);
#213=AXIS2_PLACEMENT_3D('',#305,#246,#247);
#214=AXIS2_PLACEMENT_3D('',#307,#248,#249);
#215=AXIS2_PLACEMENT_3D('',#308,#250,#251);
#216=AXIS2_PLACEMENT_3D('',#310,#252,#253);
#217=AXIS2_PLACEMENT_3D('',#311,#254,#255);
#218=AXIS2_PLACEMENT_3D('',#313,#256,#257);
#219=AXIS2_PLACEMENT_3D('',#314,#258,#259);
#220=AXIS2_PLACEMENT_3D('',#316,#260,#261);
#221=AXIS2_PLACEMENT_3D('',#317,#262,#263);
#222=AXIS2_PLACEMENT_3D('',#319,#264,#265);
#223=AXIS2_PLACEMENT_3D('',#320,#266,#267);
#224=AXIS2_PLACEMENT_3D('',#322,#268,#269);
#225=AXIS2_PLACEMENT_3D('',#323,#270,#271);
#226=AXIS2_PLACEMENT_3D('',#325,#272,#273);
#227=AXIS2_PLACEMENT_3D('',#326,#274,#275);
#228=AXIS2_PLACEMENT_3D('',#328,#276,#277);
#229=AXIS2_PLACEMENT_3D('',#329,#278,#279);
#230=AXIS2_PLACEMENT_3D('',#331,#280,#281);
#231=AXIS2_PLACEMENT_3D('',#332,#282,#283);
#232=AXIS2_PLACEMENT_3D('',#334,#284,#285);
#233=AXIS2_PLACEMENT_3D('',#335,#286,#287);
#234=AXIS2_PLACEMENT_3D('',#337,#288,#289);
#235=AXIS2_PLACEMENT_3D('',#338,#290,#291);
#236=AXIS2_PLACEMENT_3D('',#340,#292,#293);
#237=AXIS2_PLACEMENT_3D('',#341,#294,#295);
#238=AXIS2_PLACEMENT_3D('',#343,#296,#297);
#239=AXIS2_PLACEMENT_3D('',#344,#298,#299);
#240=DIRECTION('',(0.,0.,1.));
#241=DIRECTION('',(1.,0.,0.));
#242=DIRECTION('',(0.,0.,1.));
#243=DIRECTION('',(1.,0.,0.));
#244=DIRECTION('',(1.,0.,0.));
#245=DIRECTION('',(0.,0.,-1.));
#246=DIRECTION('',(1.,0.,0.));
#247=DIRECTION('',(0.,0.,-1.));
#248=DIRECTION('',(1.,0.,0.));
#249=DIRECTION('',(0.,0.,-1.));
#250=DIRECTION('',(1.,0.,0.));
#251=DIRECTION('',(0.,0.,-1.));
#252=DIRECTION('',(-1.,0.,0.));
#253=DIRECTION('',(0.,0.,1.));
#254=DIRECTION('',(1.,0.,0.));
#255=DIRECTION('',(0.,0.,-1.));
#256=DIRECTION('',(1.,0.,0.));
#257=DIRECTION('',(0.,0.,-1.));
#258=DIRECTION('',(1.,0.,0.));
#259=DIRECTION('',(0.,0.,-1.));
#260=DIRECTION('',(1.,0.,0.));
#261=DIRECTION('',(0.,0.,-1.));
#262=DIRECTION('',(1.,0.,0.));
#263=DIRECTION('',(0.,0.,-1.));
#264=DIRECTION('',(1.,0.,0.));
#265=DIRECTION('',(0.,0.,-1.));
#266=DIRECTION('',(1.,0.,0.));
#267=DIRECTION('',(0.,0.,-1.));
#268=DIRECTION('',(1.,0.,0.));
#269=DIRECTION('',(0.,0.,-1.));
#270=DIRECTION('',(1.,0.,0.));
#271=DIRECTION('',(0.,0.,-1.));
#272=DIRECTION('',(-1.,0.,0.));
#273=DIRECTION('',(0.,0.,1.));
#274=DIRECTION('',(1.,0.,0.));
#275=DIRECTION('',(0.,0.,-1.));
#276=DIRECTION('',(1.,0.,0.));
#277=DIRECTION('',(0.,0.,-1.));
#278=DIRECTION('',(1.,0.,0.));
#279=DIRECTION('',(0.,0.,-1.));
#280=DIRECTION('',(1.,0.,0.));
#281=DIRECTION('',(0.,0.,-1.));
#282=DIRECTION('',(1.,0.,0.));
#283=DIRECTION('',(0.,0.,-1.));
#284=DIRECTION('',(1.,0.,0.));
#285=DIRECTION('',(0.,0.,-1.));
#286=DIRECTION('',(1.,0.,0.));
#287=DIRECTION('',(0.,0.,-1.));
#288=DIRECTION('',(-1.,0.,0.));
#289=DIRECTION('',(0.,0.,1.));
#290=DIRECTION('',(1.,0.,0.));
#291=DIRECTION('',(0.,0.,-1.));
#292=DIRECTION('',(1.,0.,0.));
#293=DIRECTION('',(0.,0.,-1.));
#294=DIRECTION('',(1.,0.,0.));
#295=DIRECTION('',(0.,0.,-1.));
#296=DIRECTION('',(1.,0.,0.));
#297=DIRECTION('',(0.,0.,-1.));
#298=DIRECTION('',(1.,0.,0.));
#299=DIRECTION('',(0.,0.,-1.));
#300=CARTESIAN_POINT('',(0.,0.,0.));
#301=CARTESIAN_POINT('',(0.,0.,0.));
#302=CARTESIAN_POINT('',(0.,0.,0.));
#303=CARTESIAN_POINT('',(0.,0.,0.));
#304=CARTESIAN_POINT('',(0.,0.,-6.9));
#305=CARTESIAN_POINT('',(0.6,0.,0.));
#306=CARTESIAN_POINT('',(0.6,0.,-7.5));
#307=CARTESIAN_POINT('',(0.6,0.,0.));
#308=CARTESIAN_POINT('',(0.,0.,0.));
#309=CARTESIAN_POINT('',(0.,0.,-4.));
#310=CARTESIAN_POINT('',(2.15045372813264E-16,6.9,0.));
#311=CARTESIAN_POINT('',(24.,0.,0.));
#312=CARTESIAN_POINT('',(24.,0.,-4.));
#313=CARTESIAN_POINT('',(24.,0.,0.));
#314=CARTESIAN_POINT('',(24.,0.,0.));
#315=CARTESIAN_POINT('',(24.,0.,-6.9));
#316=CARTESIAN_POINT('',(24.,4.,0.));
#317=CARTESIAN_POINT('',(23.4,0.,0.));
#318=CARTESIAN_POINT('',(23.4,0.,-7.5));
#319=CARTESIAN_POINT('',(23.4,0.,0.));
#320=CARTESIAN_POINT('',(20.75,0.,0.));
#321=CARTESIAN_POINT('',(20.75,0.,-7.5));
#322=CARTESIAN_POINT('',(24.,0.,0.));
#323=CARTESIAN_POINT('',(20.75,0.,0.));
#324=CARTESIAN_POINT('',(20.75,0.,-7.15));
#325=CARTESIAN_POINT('',(20.75,7.5,0.));
#326=CARTESIAN_POINT('',(19.65,0.,0.));
#327=CARTESIAN_POINT('',(19.65,0.,-7.15));
#328=CARTESIAN_POINT('',(24.,0.,0.));
#329=CARTESIAN_POINT('',(19.65,0.,0.));
#330=CARTESIAN_POINT('',(19.65,0.,-7.5));
#331=CARTESIAN_POINT('',(19.65,7.15,0.));
#332=CARTESIAN_POINT('',(4.35,0.,0.));
#333=CARTESIAN_POINT('',(4.35,0.,-7.5));
#334=CARTESIAN_POINT('',(24.,0.,0.));
#335=CARTESIAN_POINT('',(4.35,0.,0.));
#336=CARTESIAN_POINT('',(4.35,0.,-7.15));
#337=CARTESIAN_POINT('',(4.35,7.5,0.));
#338=CARTESIAN_POINT('',(3.25,0.,0.));
#339=CARTESIAN_POINT('',(3.25,0.,-7.15));
#340=CARTESIAN_POINT('',(24.,0.,0.));
#341=CARTESIAN_POINT('',(3.25,0.,0.));
#342=CARTESIAN_POINT('',(3.25,0.,-7.5));
#343=CARTESIAN_POINT('',(3.25,7.15,0.));
#344=CARTESIAN_POINT('',(24.,0.,0.));
#345=MECHANICAL_DESIGN_GEOMETRIC_PRESENTATION_REPRESENTATION('',(#200,#201,
#202),#346);
#346=(
GEOMETRIC_REPRESENTATION_CONTEXT(3)
GLOBAL_UNCERTAINTY_ASSIGNED_CONTEXT((#347))
GLOBAL_UNIT_ASSIGNED_CONTEXT((#353,#349,#348))
REPRESENTATION_CONTEXT('LM8','TOP_LEVEL_ASSEMBLY_PART')
);
#347=UNCERTAINTY_MEASURE_WITH_UNIT(LENGTH_MEASURE(2.E-5),#353,
'DISTANCE_ACCURACY_VALUE','Maximum Tolerance applied to model');
#348=(
NAMED_UNIT(*)
SI_UNIT($,.STERADIAN.)
SOLID_ANGLE_UNIT()
);
#349=(
CONVERSION_BASED_UNIT('DEGREE',#351)
NAMED_UNIT(#350)
PLANE_ANGLE_UNIT()
);
#350=DIMENSIONAL_EXPONENTS(0.,0.,0.,0.,0.,0.,0.);
#351=PLANE_ANGLE_MEASURE_WITH_UNIT(PLANE_ANGLE_MEASURE(0.0174532925),#352);
#352=(
NAMED_UNIT(*)
PLANE_ANGLE_UNIT()
SI_UNIT($,.RADIAN.)
);
#353=(
LENGTH_UNIT()
NAMED_UNIT(*)
SI_UNIT(.MILLI.,.METRE.)
);
ENDSEC;
END-ISO-10303-21;
