ISO-10303-21;
HEADER;
/* Generated by software containing ST-Developer
 * from STEP Tools, Inc. (www.steptools.com) 
 */
/* OPTION: using custom schema-name function */

FILE_DESCRIPTION(
/* description */ (''),
/* implementation_level */ '2;1');

FILE_NAME(
/* name */ 'Z_SHAFT_BASE.stp',
/* time_stamp */ '2022-07-20T21:19:29+09:00',
/* author */ (''),
/* organization */ (''),
/* preprocessor_version */ 'ST-DEVELOPER v16.7',
/* originating_system */ '',
/* authorisation */ '');

FILE_SCHEMA (('AUTOMOTIVE_DESIGN { 1 0 10303 214 3 1 1 1 }'));
ENDSEC;

DATA;
#10=CONSTRUCTIVE_GEOMETRY_REPRESENTATION_RELATIONSHIP(
'supplemental geometry','',#34,#11);
#11=CONSTRUCTIVE_GEOMETRY_REPRESENTATION('supplemental geometry',(#371),
#610);
#12=GEOMETRICALLY_BOUNDED_WIREFRAME_SHAPE_REPRESENTATION(
'Z_SHAFT_BASE-None',(#35),#610);
#13=PROPERTY_DEFINITION_REPRESENTATION(#17,#15);
#14=PROPERTY_DEFINITION_REPRESENTATION(#18,#16);
#15=REPRESENTATION('',(#19),#610);
#16=REPRESENTATION('',(#20),#610);
#17=PROPERTY_DEFINITION('pmi validation property','',#25);
#18=PROPERTY_DEFINITION('pmi validation property','',#25);
#19=VALUE_REPRESENTATION_ITEM('number of annotations',COUNT_MEASURE(0.));
#20=VALUE_REPRESENTATION_ITEM('number of views',COUNT_MEASURE(0.));
#21=SHAPE_REPRESENTATION_RELATIONSHIP('None',
'relationship between Z_SHAFT_BASE-None and Z_SHAFT_BASE-None',#34,#23);
#22=SHAPE_REPRESENTATION_RELATIONSHIP('None',
'relationship between Z_SHAFT_BASE-None and Z_SHAFT_BASE-None',#34,#12);
#23=ADVANCED_BREP_SHAPE_REPRESENTATION('Z_SHAFT_BASE-None',(#41),#610);
#24=SHAPE_DEFINITION_REPRESENTATION(#25,#34);
#25=PRODUCT_DEFINITION_SHAPE('','',#26);
#26=PRODUCT_DEFINITION(' ','',#28,#27);
#27=PRODUCT_DEFINITION_CONTEXT('part definition',#33,'design');
#28=PRODUCT_DEFINITION_FORMATION_WITH_SPECIFIED_SOURCE(' ',' ',#30,
 .NOT_KNOWN.);
#29=PRODUCT_RELATED_PRODUCT_CATEGORY('part','',(#30));
#30=PRODUCT('Z_SHAFT_BASE','Z_SHAFT_BASE',' ',(#31));
#31=PRODUCT_CONTEXT(' ',#33,'mechanical');
#32=APPLICATION_PROTOCOL_DEFINITION('international standard',
'automotive_design',2010,#33);
#33=APPLICATION_CONTEXT(
'core data for automotive mechanical design processes');
#34=SHAPE_REPRESENTATION('Z_SHAFT_BASE-None',(#370),#610);
#35=GEOMETRIC_CURVE_SET('None',(#515));
#36=SURFACE_STYLE_USAGE(.BOTH.,#37);
#37=SURFACE_SIDE_STYLE('',(#38));
#38=SURFACE_STYLE_FILL_AREA(#39);
#39=FILL_AREA_STYLE('',(#40));
#40=FILL_AREA_STYLE_COLOUR('',#369);
#41=MANIFOLD_SOLID_BREP('',#42);
#42=CLOSED_SHELL('',(#68,#69,#70,#71,#72,#73,#74,#75,#76,#77,#78,#79,#80,
#81,#82,#83,#84,#85,#86,#87));
#43=CYLINDRICAL_SURFACE('',#383,10.);
#44=CYLINDRICAL_SURFACE('',#387,10.0000000000001);
#45=CYLINDRICAL_SURFACE('',#391,9.9999999999999);
#46=CYLINDRICAL_SURFACE('',#398,30.);
#47=CYLINDRICAL_SURFACE('',#399,30.);
#48=CYLINDRICAL_SURFACE('',#400,30.);
#49=CYLINDRICAL_SURFACE('',#402,4.05);
#50=CYLINDRICAL_SURFACE('',#405,4.05);
#51=CYLINDRICAL_SURFACE('',#408,4.05);
#52=FACE_OUTER_BOUND('',#113,.T.);
#53=FACE_OUTER_BOUND('',#114,.T.);
#54=FACE_OUTER_BOUND('',#115,.T.);
#55=FACE_OUTER_BOUND('',#116,.T.);
#56=FACE_OUTER_BOUND('',#117,.T.);
#57=FACE_OUTER_BOUND('',#118,.T.);
#58=FACE_OUTER_BOUND('',#119,.T.);
#59=FACE_OUTER_BOUND('',#120,.T.);
#60=FACE_OUTER_BOUND('',#121,.T.);
#61=FACE_OUTER_BOUND('',#122,.T.);
#62=FACE_OUTER_BOUND('',#123,.T.);
#63=FACE_OUTER_BOUND('',#124,.T.);
#64=FACE_OUTER_BOUND('',#125,.T.);
#65=FACE_OUTER_BOUND('',#128,.T.);
#66=FACE_OUTER_BOUND('',#131,.T.);
#67=FACE_OUTER_BOUND('',#134,.T.);
#68=ADVANCED_FACE('',(#99,#100,#101,#102),#88,.T.);
#69=ADVANCED_FACE('',(#52),#43,.T.);
#70=ADVANCED_FACE('',(#53),#89,.T.);
#71=ADVANCED_FACE('',(#54),#90,.T.);
#72=ADVANCED_FACE('',(#55),#44,.T.);
#73=ADVANCED_FACE('',(#56),#91,.T.);
#74=ADVANCED_FACE('',(#57),#92,.T.);
#75=ADVANCED_FACE('',(#58),#45,.T.);
#76=ADVANCED_FACE('',(#59),#93,.T.);
#77=ADVANCED_FACE('',(#60),#94,.T.);
#78=ADVANCED_FACE('',(#61),#95,.F.);
#79=ADVANCED_FACE('',(#62),#46,.F.);
#80=ADVANCED_FACE('',(#63),#47,.F.);
#81=ADVANCED_FACE('',(#64),#48,.F.);
#82=ADVANCED_FACE('',(#103,#104),#49,.F.);
#83=ADVANCED_FACE('',(#65),#96,.F.);
#84=ADVANCED_FACE('',(#105,#106),#50,.F.);
#85=ADVANCED_FACE('',(#66),#97,.F.);
#86=ADVANCED_FACE('',(#107,#108),#51,.F.);
#87=ADVANCED_FACE('',(#67),#98,.T.);
#88=PLANE('',#381);
#89=PLANE('',#384);
#90=PLANE('',#385);
#91=PLANE('',#388);
#92=PLANE('',#389);
#93=PLANE('',#392);
#94=PLANE('',#393);
#95=PLANE('',#397);
#96=PLANE('',#403);
#97=PLANE('',#406);
#98=PLANE('',#409);
#99=FACE_BOUND('',#109,.T.);
#100=FACE_BOUND('',#110,.T.);
#101=FACE_BOUND('',#111,.T.);
#102=FACE_BOUND('',#112,.T.);
#103=FACE_BOUND('',#126,.T.);
#104=FACE_BOUND('',#127,.T.);
#105=FACE_BOUND('',#129,.T.);
#106=FACE_BOUND('',#130,.T.);
#107=FACE_BOUND('',#132,.T.);
#108=FACE_BOUND('',#133,.T.);
#109=EDGE_LOOP('',(#183,#184,#185,#186,#187,#188,#189,#190,#191,#192,#193,
#194));
#110=EDGE_LOOP('',(#195));
#111=EDGE_LOOP('',(#196));
#112=EDGE_LOOP('',(#197));
#113=EDGE_LOOP('',(#198,#199,#200,#201));
#114=EDGE_LOOP('',(#202,#203,#204,#205));
#115=EDGE_LOOP('',(#206,#207,#208,#209));
#116=EDGE_LOOP('',(#210,#211,#212,#213));
#117=EDGE_LOOP('',(#214,#215,#216,#217));
#118=EDGE_LOOP('',(#218,#219,#220,#221));
#119=EDGE_LOOP('',(#222,#223,#224,#225));
#120=EDGE_LOOP('',(#226,#227,#228,#229));
#121=EDGE_LOOP('',(#230,#231,#232,#233));
#122=EDGE_LOOP('',(#234,#235,#236,#237,#238,#239,#240,#241,#242,#243,#244,
#245));
#123=EDGE_LOOP('',(#246,#247,#248,#249));
#124=EDGE_LOOP('',(#250,#251,#252,#253));
#125=EDGE_LOOP('',(#254,#255,#256,#257));
#126=EDGE_LOOP('',(#258));
#127=EDGE_LOOP('',(#259));
#128=EDGE_LOOP('',(#260));
#129=EDGE_LOOP('',(#261));
#130=EDGE_LOOP('',(#262));
#131=EDGE_LOOP('',(#263));
#132=EDGE_LOOP('',(#264));
#133=EDGE_LOOP('',(#265));
#134=EDGE_LOOP('',(#266));
#135=LINE('',#520,#159);
#136=LINE('',#524,#160);
#137=LINE('',#528,#161);
#138=LINE('',#532,#162);
#139=LINE('',#536,#163);
#140=LINE('',#540,#164);
#141=LINE('',#548,#165);
#142=LINE('',#552,#166);
#143=LINE('',#554,#167);
#144=LINE('',#556,#168);
#145=LINE('',#558,#169);
#146=LINE('',#560,#170);
#147=LINE('',#562,#171);
#148=LINE('',#566,#172);
#149=LINE('',#568,#173);
#150=LINE('',#570,#174);
#151=LINE('',#572,#175);
#152=LINE('',#574,#176);
#153=LINE('',#576,#177);
#154=LINE('',#580,#178);
#155=LINE('',#582,#179);
#156=LINE('',#584,#180);
#157=LINE('',#586,#181);
#158=LINE('',#588,#182);
#159=VECTOR('',#416,1.);
#160=VECTOR('',#419,1.);
#161=VECTOR('',#422,1.);
#162=VECTOR('',#425,1.);
#163=VECTOR('',#428,1.);
#164=VECTOR('',#431,1.);
#165=VECTOR('',#440,1.);
#166=VECTOR('',#443,1.);
#167=VECTOR('',#446,1.);
#168=VECTOR('',#447,1.);
#169=VECTOR('',#450,1.);
#170=VECTOR('',#451,1.);
#171=VECTOR('',#452,1.);
#172=VECTOR('',#457,1.);
#173=VECTOR('',#460,1.);
#174=VECTOR('',#461,1.);
#175=VECTOR('',#464,1.);
#176=VECTOR('',#465,1.);
#177=VECTOR('',#466,1.);
#178=VECTOR('',#471,1.);
#179=VECTOR('',#474,1.);
#180=VECTOR('',#475,1.);
#181=VECTOR('',#478,1.);
#182=VECTOR('',#479,1.);
#183=ORIENTED_EDGE('',*,*,#297,.T.);
#184=ORIENTED_EDGE('',*,*,#298,.T.);
#185=ORIENTED_EDGE('',*,*,#299,.T.);
#186=ORIENTED_EDGE('',*,*,#300,.T.);
#187=ORIENTED_EDGE('',*,*,#301,.T.);
#188=ORIENTED_EDGE('',*,*,#302,.T.);
#189=ORIENTED_EDGE('',*,*,#303,.T.);
#190=ORIENTED_EDGE('',*,*,#304,.T.);
#191=ORIENTED_EDGE('',*,*,#305,.T.);
#192=ORIENTED_EDGE('',*,*,#306,.T.);
#193=ORIENTED_EDGE('',*,*,#307,.T.);
#194=ORIENTED_EDGE('',*,*,#308,.T.);
#195=ORIENTED_EDGE('',*,*,#309,.F.);
#196=ORIENTED_EDGE('',*,*,#310,.F.);
#197=ORIENTED_EDGE('',*,*,#311,.T.);
#198=ORIENTED_EDGE('',*,*,#297,.F.);
#199=ORIENTED_EDGE('',*,*,#312,.F.);
#200=ORIENTED_EDGE('',*,*,#313,.T.);
#201=ORIENTED_EDGE('',*,*,#314,.T.);
#202=ORIENTED_EDGE('',*,*,#315,.T.);
#203=ORIENTED_EDGE('',*,*,#316,.T.);
#204=ORIENTED_EDGE('',*,*,#298,.F.);
#205=ORIENTED_EDGE('',*,*,#314,.F.);
#206=ORIENTED_EDGE('',*,*,#300,.F.);
#207=ORIENTED_EDGE('',*,*,#317,.T.);
#208=ORIENTED_EDGE('',*,*,#318,.T.);
#209=ORIENTED_EDGE('',*,*,#319,.T.);
#210=ORIENTED_EDGE('',*,*,#301,.F.);
#211=ORIENTED_EDGE('',*,*,#319,.F.);
#212=ORIENTED_EDGE('',*,*,#320,.T.);
#213=ORIENTED_EDGE('',*,*,#321,.T.);
#214=ORIENTED_EDGE('',*,*,#322,.T.);
#215=ORIENTED_EDGE('',*,*,#323,.T.);
#216=ORIENTED_EDGE('',*,*,#302,.F.);
#217=ORIENTED_EDGE('',*,*,#321,.F.);
#218=ORIENTED_EDGE('',*,*,#304,.F.);
#219=ORIENTED_EDGE('',*,*,#324,.T.);
#220=ORIENTED_EDGE('',*,*,#325,.T.);
#221=ORIENTED_EDGE('',*,*,#326,.T.);
#222=ORIENTED_EDGE('',*,*,#305,.F.);
#223=ORIENTED_EDGE('',*,*,#326,.F.);
#224=ORIENTED_EDGE('',*,*,#327,.T.);
#225=ORIENTED_EDGE('',*,*,#328,.T.);
#226=ORIENTED_EDGE('',*,*,#329,.T.);
#227=ORIENTED_EDGE('',*,*,#330,.T.);
#228=ORIENTED_EDGE('',*,*,#306,.F.);
#229=ORIENTED_EDGE('',*,*,#328,.F.);
#230=ORIENTED_EDGE('',*,*,#308,.F.);
#231=ORIENTED_EDGE('',*,*,#331,.T.);
#232=ORIENTED_EDGE('',*,*,#332,.T.);
#233=ORIENTED_EDGE('',*,*,#312,.T.);
#234=ORIENTED_EDGE('',*,*,#313,.F.);
#235=ORIENTED_EDGE('',*,*,#332,.F.);
#236=ORIENTED_EDGE('',*,*,#333,.T.);
#237=ORIENTED_EDGE('',*,*,#329,.F.);
#238=ORIENTED_EDGE('',*,*,#327,.F.);
#239=ORIENTED_EDGE('',*,*,#325,.F.);
#240=ORIENTED_EDGE('',*,*,#334,.T.);
#241=ORIENTED_EDGE('',*,*,#322,.F.);
#242=ORIENTED_EDGE('',*,*,#320,.F.);
#243=ORIENTED_EDGE('',*,*,#318,.F.);
#244=ORIENTED_EDGE('',*,*,#335,.T.);
#245=ORIENTED_EDGE('',*,*,#315,.F.);
#246=ORIENTED_EDGE('',*,*,#334,.F.);
#247=ORIENTED_EDGE('',*,*,#324,.F.);
#248=ORIENTED_EDGE('',*,*,#303,.F.);
#249=ORIENTED_EDGE('',*,*,#323,.F.);
#250=ORIENTED_EDGE('',*,*,#333,.F.);
#251=ORIENTED_EDGE('',*,*,#331,.F.);
#252=ORIENTED_EDGE('',*,*,#307,.F.);
#253=ORIENTED_EDGE('',*,*,#330,.F.);
#254=ORIENTED_EDGE('',*,*,#335,.F.);
#255=ORIENTED_EDGE('',*,*,#317,.F.);
#256=ORIENTED_EDGE('',*,*,#299,.F.);
#257=ORIENTED_EDGE('',*,*,#316,.F.);
#258=ORIENTED_EDGE('',*,*,#309,.T.);
#259=ORIENTED_EDGE('',*,*,#336,.F.);
#260=ORIENTED_EDGE('',*,*,#336,.T.);
#261=ORIENTED_EDGE('',*,*,#310,.T.);
#262=ORIENTED_EDGE('',*,*,#337,.F.);
#263=ORIENTED_EDGE('',*,*,#337,.T.);
#264=ORIENTED_EDGE('',*,*,#311,.F.);
#265=ORIENTED_EDGE('',*,*,#338,.T.);
#266=ORIENTED_EDGE('',*,*,#338,.F.);
#267=VERTEX_POINT('',#518);
#268=VERTEX_POINT('',#519);
#269=VERTEX_POINT('',#521);
#270=VERTEX_POINT('',#523);
#271=VERTEX_POINT('',#525);
#272=VERTEX_POINT('',#527);
#273=VERTEX_POINT('',#529);
#274=VERTEX_POINT('',#531);
#275=VERTEX_POINT('',#533);
#276=VERTEX_POINT('',#535);
#277=VERTEX_POINT('',#537);
#278=VERTEX_POINT('',#539);
#279=VERTEX_POINT('',#542);
#280=VERTEX_POINT('',#544);
#281=VERTEX_POINT('',#546);
#282=VERTEX_POINT('',#549);
#283=VERTEX_POINT('',#551);
#284=VERTEX_POINT('',#555);
#285=VERTEX_POINT('',#559);
#286=VERTEX_POINT('',#561);
#287=VERTEX_POINT('',#565);
#288=VERTEX_POINT('',#569);
#289=VERTEX_POINT('',#573);
#290=VERTEX_POINT('',#575);
#291=VERTEX_POINT('',#579);
#292=VERTEX_POINT('',#583);
#293=VERTEX_POINT('',#587);
#294=VERTEX_POINT('',#598);
#295=VERTEX_POINT('',#602);
#296=VERTEX_POINT('',#606);
#297=EDGE_CURVE('',#267,#268,#339,.T.);
#298=EDGE_CURVE('',#268,#269,#135,.T.);
#299=EDGE_CURVE('',#269,#270,#340,.T.);
#300=EDGE_CURVE('',#270,#271,#136,.T.);
#301=EDGE_CURVE('',#271,#272,#341,.T.);
#302=EDGE_CURVE('',#272,#273,#137,.T.);
#303=EDGE_CURVE('',#273,#274,#342,.T.);
#304=EDGE_CURVE('',#274,#275,#138,.T.);
#305=EDGE_CURVE('',#275,#276,#343,.T.);
#306=EDGE_CURVE('',#276,#277,#139,.T.);
#307=EDGE_CURVE('',#277,#278,#344,.T.);
#308=EDGE_CURVE('',#278,#267,#140,.T.);
#309=EDGE_CURVE('',#279,#279,#345,.T.);
#310=EDGE_CURVE('',#280,#280,#346,.T.);
#311=EDGE_CURVE('',#281,#281,#347,.T.);
#312=EDGE_CURVE('',#282,#267,#141,.T.);
#313=EDGE_CURVE('',#282,#283,#348,.T.);
#314=EDGE_CURVE('',#283,#268,#142,.T.);
#315=EDGE_CURVE('',#283,#284,#143,.T.);
#316=EDGE_CURVE('',#284,#269,#144,.T.);
#317=EDGE_CURVE('',#270,#285,#145,.T.);
#318=EDGE_CURVE('',#285,#286,#146,.T.);
#319=EDGE_CURVE('',#286,#271,#147,.T.);
#320=EDGE_CURVE('',#286,#287,#349,.T.);
#321=EDGE_CURVE('',#287,#272,#148,.T.);
#322=EDGE_CURVE('',#287,#288,#149,.T.);
#323=EDGE_CURVE('',#288,#273,#150,.T.);
#324=EDGE_CURVE('',#274,#289,#151,.T.);
#325=EDGE_CURVE('',#289,#290,#152,.T.);
#326=EDGE_CURVE('',#290,#275,#153,.T.);
#327=EDGE_CURVE('',#290,#291,#350,.T.);
#328=EDGE_CURVE('',#291,#276,#154,.T.);
#329=EDGE_CURVE('',#291,#292,#155,.T.);
#330=EDGE_CURVE('',#292,#277,#156,.T.);
#331=EDGE_CURVE('',#278,#293,#157,.T.);
#332=EDGE_CURVE('',#293,#282,#158,.T.);
#333=EDGE_CURVE('',#293,#292,#351,.T.);
#334=EDGE_CURVE('',#289,#288,#352,.T.);
#335=EDGE_CURVE('',#285,#284,#353,.T.);
#336=EDGE_CURVE('',#294,#294,#354,.T.);
#337=EDGE_CURVE('',#295,#295,#355,.T.);
#338=EDGE_CURVE('',#296,#296,#356,.T.);
#339=CIRCLE('',#372,10.);
#340=CIRCLE('',#373,30.);
#341=CIRCLE('',#374,10.0000000000001);
#342=CIRCLE('',#375,30.);
#343=CIRCLE('',#376,9.9999999999999);
#344=CIRCLE('',#377,30.);
#345=CIRCLE('',#378,4.05);
#346=CIRCLE('',#379,4.05);
#347=CIRCLE('',#380,4.05);
#348=CIRCLE('',#382,10.);
#349=CIRCLE('',#386,10.0000000000001);
#350=CIRCLE('',#390,9.9999999999999);
#351=CIRCLE('',#394,30.);
#352=CIRCLE('',#395,30.);
#353=CIRCLE('',#396,30.);
#354=CIRCLE('',#401,4.05);
#355=CIRCLE('',#404,4.05);
#356=CIRCLE('',#407,4.05);
#357=CURVE_STYLE('',#358,POSITIVE_LENGTH_MEASURE(0.18),#368);
#358=DRAUGHTING_PRE_DEFINED_CURVE_FONT('continuous');
#359=PRESENTATION_LAYER_ASSIGNMENT('1','Layer 1',(#515,#371,#41));
#360=STYLED_ITEM('',(#363),#515);
#361=STYLED_ITEM('',(#364),#371);
#362=STYLED_ITEM('',(#365),#41);
#363=PRESENTATION_STYLE_ASSIGNMENT((#366));
#364=PRESENTATION_STYLE_ASSIGNMENT((#357));
#365=PRESENTATION_STYLE_ASSIGNMENT((#36));
#366=POINT_STYLE('',#367,POSITIVE_LENGTH_MEASURE(3.),#368);
#367=PRE_DEFINED_POINT_MARKER_SYMBOL('plus');
#368=COLOUR_RGB('Light Weak Red',0.8,0.6,0.6);
#369=COLOUR_RGB('Light Gray',0.6,0.6,0.6);
#370=AXIS2_PLACEMENT_3D('',#514,#410,#411);
#371=AXIS2_PLACEMENT_3D('',#516,#412,#413);
#372=AXIS2_PLACEMENT_3D('',#517,#414,#415);
#373=AXIS2_PLACEMENT_3D('',#522,#417,#418);
#374=AXIS2_PLACEMENT_3D('',#526,#420,#421);
#375=AXIS2_PLACEMENT_3D('',#530,#423,#424);
#376=AXIS2_PLACEMENT_3D('',#534,#426,#427);
#377=AXIS2_PLACEMENT_3D('',#538,#429,#430);
#378=AXIS2_PLACEMENT_3D('',#541,#432,#433);
#379=AXIS2_PLACEMENT_3D('',#543,#434,#435);
#380=AXIS2_PLACEMENT_3D('',#545,#436,#437);
#381=AXIS2_PLACEMENT_3D('',#547,#438,#439);
#382=AXIS2_PLACEMENT_3D('',#550,#441,#442);
#383=AXIS2_PLACEMENT_3D('',#553,#444,#445);
#384=AXIS2_PLACEMENT_3D('',#557,#448,#449);
#385=AXIS2_PLACEMENT_3D('',#563,#453,#454);
#386=AXIS2_PLACEMENT_3D('',#564,#455,#456);
#387=AXIS2_PLACEMENT_3D('',#567,#458,#459);
#388=AXIS2_PLACEMENT_3D('',#571,#462,#463);
#389=AXIS2_PLACEMENT_3D('',#577,#467,#468);
#390=AXIS2_PLACEMENT_3D('',#578,#469,#470);
#391=AXIS2_PLACEMENT_3D('',#581,#472,#473);
#392=AXIS2_PLACEMENT_3D('',#585,#476,#477);
#393=AXIS2_PLACEMENT_3D('',#589,#480,#481);
#394=AXIS2_PLACEMENT_3D('',#590,#482,#483);
#395=AXIS2_PLACEMENT_3D('',#591,#484,#485);
#396=AXIS2_PLACEMENT_3D('',#592,#486,#487);
#397=AXIS2_PLACEMENT_3D('',#593,#488,#489);
#398=AXIS2_PLACEMENT_3D('',#594,#490,#491);
#399=AXIS2_PLACEMENT_3D('',#595,#492,#493);
#400=AXIS2_PLACEMENT_3D('',#596,#494,#495);
#401=AXIS2_PLACEMENT_3D('',#597,#496,#497);
#402=AXIS2_PLACEMENT_3D('',#599,#498,#499);
#403=AXIS2_PLACEMENT_3D('',#600,#500,#501);
#404=AXIS2_PLACEMENT_3D('',#601,#502,#503);
#405=AXIS2_PLACEMENT_3D('',#603,#504,#505);
#406=AXIS2_PLACEMENT_3D('',#604,#506,#507);
#407=AXIS2_PLACEMENT_3D('',#605,#508,#509);
#408=AXIS2_PLACEMENT_3D('',#607,#510,#511);
#409=AXIS2_PLACEMENT_3D('',#608,#512,#513);
#410=DIRECTION('',(0.,0.,1.));
#411=DIRECTION('',(1.,0.,0.));
#412=DIRECTION('',(0.,0.,1.));
#413=DIRECTION('',(1.,0.,0.));
#414=DIRECTION('',(9.94056667387885E-17,1.,3.4498049472978E-16));
#415=DIRECTION('',(1.,-9.94056667387887E-17,6.12323399573677E-17));
#416=DIRECTION('',(1.,3.34003883497194E-17,-1.14781640644265E-16));
#417=DIRECTION('',(-9.94056667387885E-17,-1.,-3.4498049472978E-16));
#418=DIRECTION('',(0.,-3.44980494729779E-16,1.));
#419=DIRECTION('',(0.5,2.10559150165738E-17,0.866025403784439));
#420=DIRECTION('',(0.,1.,0.));
#421=DIRECTION('',(-0.499999999999998,0.,-0.866025403784439));
#422=DIRECTION('',(-0.5,-5.82318342270683E-17,-0.866025403784438));
#423=DIRECTION('',(-9.94056667387885E-17,-1.,-3.4498049472978E-16));
#424=DIRECTION('',(0.,-3.44980494729779E-16,1.));
#425=DIRECTION('',(0.5,-9.54392001871671E-18,-0.866025403784438));
#426=DIRECTION('',(0.,1.,0.));
#427=DIRECTION('',(-0.500000000000003,0.,0.866025403784437));
#428=DIRECTION('',(-0.5,2.50955811537163E-17,0.866025403784438));
#429=DIRECTION('',(-9.94056667387885E-17,-1.,-3.4498049472978E-16));
#430=DIRECTION('',(0.,-3.4498049472978E-16,1.));
#431=DIRECTION('',(-1.,-6.81266394980924E-18,-1.14781640644265E-16));
#432=DIRECTION('',(9.94056667387885E-17,1.,3.4498049472978E-16));
#433=DIRECTION('',(0.,-3.4498049472978E-16,1.));
#434=DIRECTION('',(9.94056667387885E-17,1.,3.4498049472978E-16));
#435=DIRECTION('',(0.,-3.44980494729779E-16,1.));
#436=DIRECTION('',(-9.94056667387885E-17,-1.,-3.4498049472978E-16));
#437=DIRECTION('',(0.,-3.4498049472978E-16,1.));
#438=DIRECTION('',(9.94056667387885E-17,1.,3.4498049472978E-16));
#439=DIRECTION('',(0.,-3.4498049472978E-16,1.));
#440=DIRECTION('',(9.94056667387886E-17,1.,3.4498049472978E-16));
#441=DIRECTION('',(9.94056667387885E-17,1.,3.4498049472978E-16));
#442=DIRECTION('',(1.,-1.73472347597681E-16,6.12323399573676E-17));
#443=DIRECTION('',(9.94056667387886E-17,1.,3.4498049472978E-16));
#444=DIRECTION('',(9.94056667387886E-17,1.,3.4498049472978E-16));
#445=DIRECTION('',(0.,-3.46944695195361E-16,1.));
#446=DIRECTION('',(1.,3.34003883497194E-17,-1.14781640644265E-16));
#447=DIRECTION('',(9.94056667387885E-17,1.,3.4498049472978E-16));
#448=DIRECTION('',(1.14781640644265E-16,-3.4498049472978E-16,1.));
#449=DIRECTION('',(0.,-1.,-3.45209971719385E-16));
#450=DIRECTION('',(-9.94056667387885E-17,-1.,-3.4498049472978E-16));
#451=DIRECTION('',(0.5,2.10559150165738E-17,0.866025403784439));
#452=DIRECTION('',(9.94056667387886E-17,1.,3.4498049472978E-16));
#453=DIRECTION('',(-0.866025403784439,-8.6402414688969E-17,0.5));
#454=DIRECTION('',(0.5,0.,0.866025403784439));
#455=DIRECTION('',(0.,1.,0.));
#456=DIRECTION('',(-0.499999999999998,0.,-0.86602540378444));
#457=DIRECTION('',(9.94056667387886E-17,1.,3.4498049472978E-16));
#458=DIRECTION('',(9.94056667387886E-17,1.,3.4498049472978E-16));
#459=DIRECTION('',(0.,-3.46944695195359E-16,1.));
#460=DIRECTION('',(-0.5,-5.82318342270683E-17,-0.866025403784438));
#461=DIRECTION('',(9.94056667387886E-17,1.,3.4498049472978E-16));
#462=DIRECTION('',(0.866025403784438,8.64024146889691E-17,-0.5));
#463=DIRECTION('',(-0.5,0.,-0.866025403784439));
#464=DIRECTION('',(-9.94056667387886E-17,-1.,-3.44980494729779E-16));
#465=DIRECTION('',(0.5,-9.54392001871671E-18,-0.866025403784438));
#466=DIRECTION('',(9.94056667387886E-17,1.,3.4498049472978E-16));
#467=DIRECTION('',(0.866025403784438,-2.5857808004081E-16,0.5));
#468=DIRECTION('',(0.5,0.,-0.866025403784439));
#469=DIRECTION('',(0.,1.,0.));
#470=DIRECTION('',(-0.500000000000003,0.,0.866025403784437));
#471=DIRECTION('',(9.94056667387886E-17,1.,3.4498049472978E-16));
#472=DIRECTION('',(9.94056667387886E-17,1.,3.4498049472978E-16));
#473=DIRECTION('',(0.,-3.46944695195365E-16,1.));
#474=DIRECTION('',(-0.5,2.50955811537163E-17,0.866025403784438));
#475=DIRECTION('',(9.94056667387885E-17,1.,3.44980494729779E-16));
#476=DIRECTION('',(-0.866025403784439,2.5857808004081E-16,-0.5));
#477=DIRECTION('',(-0.5,0.,0.866025403784439));
#478=DIRECTION('',(-9.94056667387885E-17,-1.,-3.4498049472978E-16));
#479=DIRECTION('',(-1.,-6.81266394980924E-18,-1.14781640644265E-16));
#480=DIRECTION('',(1.14781640644265E-16,3.4498049472978E-16,-1.));
#481=DIRECTION('',(0.,1.,3.45209971719385E-16));
#482=DIRECTION('',(9.94056667387885E-17,1.,3.4498049472978E-16));
#483=DIRECTION('',(0.,-3.46944695195361E-16,1.));
#484=DIRECTION('',(9.94056667387885E-17,1.,3.4498049472978E-16));
#485=DIRECTION('',(0.,-3.46944695195361E-16,1.));
#486=DIRECTION('',(9.94056667387885E-17,1.,3.4498049472978E-16));
#487=DIRECTION('',(0.,-3.46944695195361E-16,1.));
#488=DIRECTION('',(9.94056667387885E-17,1.,3.4498049472978E-16));
#489=DIRECTION('',(0.,-3.45209971719385E-16,1.));
#490=DIRECTION('',(-9.94056667387886E-17,-1.,-3.4498049472978E-16));
#491=DIRECTION('',(0.,3.46944695195361E-16,-1.));
#492=DIRECTION('',(-9.94056667387885E-17,-1.,-3.4498049472978E-16));
#493=DIRECTION('',(0.,3.46944695195361E-16,-1.));
#494=DIRECTION('',(-9.94056667387885E-17,-1.,-3.4498049472978E-16));
#495=DIRECTION('',(0.,3.46944695195361E-16,-1.));
#496=DIRECTION('',(0.,1.,0.));
#497=DIRECTION('',(-0.500000000000003,0.,0.866025403784437));
#498=DIRECTION('',(-9.94056667387886E-17,-1.,-3.4498049472978E-16));
#499=DIRECTION('',(0.,0.,-1.));
#500=DIRECTION('',(0.,-1.,0.));
#501=DIRECTION('',(0.,0.,-1.));
#502=DIRECTION('',(0.,1.,0.));
#503=DIRECTION('',(1.,0.,-6.12323399573676E-17));
#504=DIRECTION('',(-9.94056667387886E-17,-1.,-3.4498049472978E-16));
#505=DIRECTION('',(0.,0.,-1.));
#506=DIRECTION('',(0.,-1.,0.));
#507=DIRECTION('',(0.,0.,-1.));
#508=DIRECTION('',(0.,-1.,0.));
#509=DIRECTION('',(-0.499999999999999,0.,-0.866025403784439));
#510=DIRECTION('',(-9.94056667387886E-17,-1.,-3.4498049472978E-16));
#511=DIRECTION('',(0.,0.,-1.));
#512=DIRECTION('',(0.,1.,0.));
#513=DIRECTION('',(0.,0.,1.));
#514=CARTESIAN_POINT('',(0.,0.,0.));
#515=CARTESIAN_POINT('',(0.,0.,0.));
#516=CARTESIAN_POINT('',(0.,0.,0.));
#517=CARTESIAN_POINT('',(-36.,-1.43144160103856E-14,6.93889390390723E-15));
#518=CARTESIAN_POINT('',(-36.,-1.08646110630878E-14,-9.99999999999999));
#519=CARTESIAN_POINT('',(-36.,-1.77642209576834E-14,10.));
#520=CARTESIAN_POINT('',(-36.,-2.0968535023846E-15,10.));
#521=CARTESIAN_POINT('',(-23.094010767585,-1.66578844998464E-15,10.));
#522=CARTESIAN_POINT('',(-23.094010767585,-2.94902990916057E-14,40.));
#523=CARTESIAN_POINT('',(2.88675134594813,-7.22577607756604E-16,25.));
#524=CARTESIAN_POINT('',(-5.77350269189625,-1.08727675384219E-15,10.));
#525=CARTESIAN_POINT('',(9.33974596215561,-4.50830195274058E-16,36.1769145362398));
#526=CARTESIAN_POINT('',(18.,6.27236470107914E-14,31.1769145362399));
#527=CARTESIAN_POINT('',(26.6602540378444,6.27236470107914E-14,26.1769145362398));
#528=CARTESIAN_POINT('',(26.6602540378444,5.307682728467E-16,26.1769145362398));
#529=CARTESIAN_POINT('',(20.2072594216369,-2.20771152671616E-16,15.));
#530=CARTESIAN_POINT('',(46.1880215351701,-2.25514051876985E-14,1.70526046899307E-15));
#531=CARTESIAN_POINT('',(20.2072594216369,-1.39468165142163E-15,-15.));
#532=CARTESIAN_POINT('',(11.5470053837925,-1.22937610766372E-15,0.));
#533=CARTESIAN_POINT('',(26.6602540378444,-1.51785538041822E-15,-26.1769145362398));
#534=CARTESIAN_POINT('',(18.0000000000001,-4.48306269978092E-14,-31.1769145362398));
#535=CARTESIAN_POINT('',(9.33974596215581,-4.48306269978092E-14,-36.1769145362397));
#536=CARTESIAN_POINT('',(9.33974596215561,2.99389638511346E-14,-36.1769145362398));
#537=CARTESIAN_POINT('',(2.88675134594813,3.02628471512857E-14,-25.));
#538=CARTESIAN_POINT('',(-23.094010767585,-1.73472347597681E-15,-40.));
#539=CARTESIAN_POINT('',(-23.094010767585,3.05795165663631E-14,-10.));
#540=CARTESIAN_POINT('',(-5.77350269189626,3.06975153673227E-14,-10.));
#541=CARTESIAN_POINT('',(16.,-6.93889390390723E-15,-27.712812921102));
#542=CARTESIAN_POINT('',(16.,-8.33606490756284E-15,-23.662812921102));
#543=CARTESIAN_POINT('',(-32.,-1.38777878078145E-14,-4.62223186652937E-30));
#544=CARTESIAN_POINT('',(-32.,-1.52749588114701E-14,4.05));
#545=CARTESIAN_POINT('',(16.,-2.77555756156289E-14,27.712812921102));
#546=CARTESIAN_POINT('',(16.,-2.91527466192845E-14,31.762812921102));
#547=CARTESIAN_POINT('',(-36.,-1.43144160103856E-14,6.93889390390723E-15));
#548=CARTESIAN_POINT('',(-36.,-15.,-10.));
#549=CARTESIAN_POINT('',(-36.,-15.,-10.));
#550=CARTESIAN_POINT('',(-36.,-15.,1.76418648296054E-15));
#551=CARTESIAN_POINT('',(-36.,-15.,10.));
#552=CARTESIAN_POINT('',(-36.,-15.,10.));
#553=CARTESIAN_POINT('',(-36.,-15.,1.76418648296054E-15));
#554=CARTESIAN_POINT('',(-36.,-15.,10.));
#555=CARTESIAN_POINT('',(-23.094010767585,-15.,9.99999999999999));
#556=CARTESIAN_POINT('',(-23.094010767585,-5.89260139674565E-17,10.));
#557=CARTESIAN_POINT('',(-36.,-15.,10.));
#558=CARTESIAN_POINT('',(2.88675134594813,-15.,25.));
#559=CARTESIAN_POINT('',(2.88675134594813,-15.,25.));
#560=CARTESIAN_POINT('',(-5.77350269189625,-15.,9.99999999999999));
#561=CARTESIAN_POINT('',(9.33974596215561,-15.,36.1769145362398));
#562=CARTESIAN_POINT('',(9.33974596215561,-15.,36.1769145362398));
#563=CARTESIAN_POINT('',(-5.77350269189625,-15.,9.99999999999999));
#564=CARTESIAN_POINT('',(18.,-14.9999999999999,31.1769145362399));
#565=CARTESIAN_POINT('',(26.6602540378444,-14.9999999999999,26.1769145362398));
#566=CARTESIAN_POINT('',(26.6602540378444,-14.9999999999999,26.1769145362398));
#567=CARTESIAN_POINT('',(18.,-14.9999999999999,31.1769145362399));
#568=CARTESIAN_POINT('',(26.6602540378444,-15.,26.1769145362398));
#569=CARTESIAN_POINT('',(20.2072594216369,-15.,15.));
#570=CARTESIAN_POINT('',(20.2072594216369,-7.79624286859949E-15,15.));
#571=CARTESIAN_POINT('',(26.6602540378444,-15.,26.1769145362398));
#572=CARTESIAN_POINT('',(20.2072594216369,-15.,-15.));
#573=CARTESIAN_POINT('',(20.2072594216369,-15.,-15.));
#574=CARTESIAN_POINT('',(11.5470053837925,-15.,-5.17470742094669E-15));
#575=CARTESIAN_POINT('',(26.6602540378444,-15.,-26.1769145362398));
#576=CARTESIAN_POINT('',(26.6602540378444,-15.,-26.1769145362398));
#577=CARTESIAN_POINT('',(11.5470053837925,-15.,-5.17470742094669E-15));
#578=CARTESIAN_POINT('',(18.0000000000001,-15.,-31.1769145362398));
#579=CARTESIAN_POINT('',(9.33974596215581,-15.,-36.1769145362397));
#580=CARTESIAN_POINT('',(9.33974596215581,-15.,-36.1769145362397));
#581=CARTESIAN_POINT('',(18.0000000000001,-15.,-31.1769145362398));
#582=CARTESIAN_POINT('',(9.33974596215561,-15.,-36.1769145362398));
#583=CARTESIAN_POINT('',(2.88675134594812,-15.,-25.));
#584=CARTESIAN_POINT('',(2.88675134594812,3.56107444981959E-14,-25.));
#585=CARTESIAN_POINT('',(9.33974596215561,-15.,-36.1769145362398));
#586=CARTESIAN_POINT('',(-23.094010767585,-15.,-10.));
#587=CARTESIAN_POINT('',(-23.094010767585,-15.,-10.));
#588=CARTESIAN_POINT('',(-5.77350269189626,-15.,-10.));
#589=CARTESIAN_POINT('',(-5.77350269189626,-15.,-10.));
#590=CARTESIAN_POINT('',(-23.094010767585,-15.,-40.));
#591=CARTESIAN_POINT('',(46.1880215351701,-15.,-3.46944695195362E-15));
#592=CARTESIAN_POINT('',(-23.094010767585,-15.,40.));
#593=CARTESIAN_POINT('',(-36.,-15.,1.76418648296054E-15));
#594=CARTESIAN_POINT('',(46.1880215351701,-15.,-3.46944695195361E-15));
#595=CARTESIAN_POINT('',(-23.094010767585,-15.,-40.));
#596=CARTESIAN_POINT('',(-23.094010767585,-15.,40.));
#597=CARTESIAN_POINT('',(16.,-10.,-27.712812921102));
#598=CARTESIAN_POINT('',(13.975,-10.,-24.2054100357751));
#599=CARTESIAN_POINT('',(16.,20.,-27.712812921102));
#600=CARTESIAN_POINT('',(16.,-10.,-27.712812921102));
#601=CARTESIAN_POINT('',(-32.,-10.,-3.4498049472978E-15));
#602=CARTESIAN_POINT('',(-27.95,-10.,-3.69779592412513E-15));
#603=CARTESIAN_POINT('',(-32.,20.,6.89960989459559E-15));
#604=CARTESIAN_POINT('',(-32.,-10.,-3.4498049472978E-15));
#605=CARTESIAN_POINT('',(16.,-9.99999999999999,27.712812921102));
#606=CARTESIAN_POINT('',(13.975,-9.99999999999999,24.2054100357751));
#607=CARTESIAN_POINT('',(16.,20.,27.712812921102));
#608=CARTESIAN_POINT('',(16.,-9.99999999999999,27.712812921102));
#609=MECHANICAL_DESIGN_GEOMETRIC_PRESENTATION_REPRESENTATION('',(#360,#361,
#362),#610);
#610=(
GEOMETRIC_REPRESENTATION_CONTEXT(3)
GLOBAL_UNCERTAINTY_ASSIGNED_CONTEXT((#611))
GLOBAL_UNIT_ASSIGNED_CONTEXT((#617,#613,#612))
REPRESENTATION_CONTEXT('Z_SHAFT_BASE','TOP_LEVEL_ASSEMBLY_PART')
);
#611=UNCERTAINTY_MEASURE_WITH_UNIT(LENGTH_MEASURE(2.E-5),#617,
'DISTANCE_ACCURACY_VALUE','Maximum Tolerance applied to model');
#612=(
NAMED_UNIT(*)
SI_UNIT($,.STERADIAN.)
SOLID_ANGLE_UNIT()
);
#613=(
CONVERSION_BASED_UNIT('DEGREE',#615)
NAMED_UNIT(#614)
PLANE_ANGLE_UNIT()
);
#614=DIMENSIONAL_EXPONENTS(0.,0.,0.,0.,0.,0.,0.);
#615=PLANE_ANGLE_MEASURE_WITH_UNIT(PLANE_ANGLE_MEASURE(0.0174532925),#616);
#616=(
NAMED_UNIT(*)
PLANE_ANGLE_UNIT()
SI_UNIT($,.RADIAN.)
);
#617=(
LENGTH_UNIT()
NAMED_UNIT(*)
SI_UNIT(.MILLI.,.METRE.)
);
ENDSEC;
END-ISO-10303-21;
